Oops, an error
Loading. Please wait.
We have an official Sir Duke tab made by UG professional guitarists. Check out the tab »
×
43,460 views 183 this week
1 commentread comment
1 2 3 4 5
x 6
add to favorites
×
Save as Personal and add changes to this tab that will be seen only by you. Learn more ›
×
You can save this tab as Personal to edit and correct it or add notes. All changes will be seen only by you. Learn more »
launch autoscroll
font size
0
reset
how to read this tab
guitar tuner
backing track
0:00
0:00
edit
Autoscroll
slow
fast
+/-
esc
set tempo
stop
Author
Hey guys

Yet another great Stevie Wonder song.

01/23/09: UPDATE : Updated a mistake in the beginning of the tab.

# = Pull off
^ = Pull on

E|--------------------------------------------|
B|--------------------------------------------|
G|--------------------------------------------|
D|-------------9--------------------6---------|
A|-----6---9-----------------6#5^6------------|
E|--7--------------4-4--7-7-------------------|

E|-------------------------------------|
B|-------------------------------------|
G|-------------------------------------|
D|-----------------5--4----------------|
A|------2-2---5-5----------------------|
E|--3-3--------------------------------|

Repeat 2 times ^

[Verse 0.19]

Music is a world.. within itself
E|---7----------||---4----------|
B|---x----------||---x----------|
G|---x----------||---x----------|
D|------9-------||------6-------|
A|------9-------||------6-------|
E|---7----------||---4----------|

with a language.. we alle understand
E|------x-------||-------x------|
B|------9-------||-------8------|
G|------9-------||-------8------| < place you 4 finger so that it
D|----8---------||----7---------|   covers borth the B and E string.
A|------9-------||-------8------|
E|--------------||--------------|

x 2

With an equal opportunity
for all to sing, dance
and clap their hands

 Just because a record has a groove
E|--------|----------|---------|------------|
B|----7---|------6---|-----5---|-----4------|
G|----7---|------6---|-----5---|-----4------|
D|--6-----|---5------|--4------|--3---------|
A|----7---|------6---|-----5---|-----4------|
E|--------|----------|---------|------------|

 Don't make it in the groove
E|--------|----------|---------|
B|----5---|------6---|-----7---|
G|----5---|------6---|-----7---|
D|--4-----|---5------|--6------|
A|----5---|------6---|-----7---|
E|--------|----------|---------| x2

^ Hit the chords two times each. It's easy to figure out if you've got the song.
The second time you'll only have to hit them once!

:But you can tell right away at letter A
When the people start to move:

[Chorous 0.45]

They can feel it , all ooo-oh-uh-ver
E|---7----------||---8----------|
B|---x----------||-----9--------|
G|-----8--------||-------10-----|
D|-------9------||-------10-----|
A|-------9------||---x----------|
E|---7----------||---8----------|

They can feel it , all       over       people
E|---7----------||--6------||--4------||--9------|
B|-------9------||----7----||----5----||----11---|
G|-------9------||------8--||------6--||----11---|
D|-------9------||------8--||------6--||----11---|
A|---x----------||--x------||--x------||--x------|
E|---7----------||--6------||--5------||--9------| x 2

They can feel it all over
They can feel it all over people

[Solo-thing 1.04]

E|---------------------------------------|
B|---------------------------------------|
G|-------------------------------------4-|
D|--------------6-5---------------4--6---|
A|--2-2---6-5-5---------2-2-4-5-6--------|
E|------------------2-4------------------|

E|---------------------------------------|
B|--------9--7---------------------------|
G|--6-7-8--8---6--8--6--4------6--4---4--|
D|------------------------6--4------6----|
A|---------------------------------------|
E|---------------------------------------|

E|---------------------------------------|
B|---------------------------------------|
G|--8--6--4--6--4----4-------------------|
D|-----------------6---6--4-6--4---4---4-|
A|-------------------------------6---6---|
E|---------------------------------------|

E|---------------------------------------|
B|---------------------------------------|
G|---------------------------------------|
D|---------------------------------------|
A|--6--4--6--4-/-2-----------------------|
E|-----------------4--2--4--2------------|

E|---------------------------------------|
B|---------------------------------------|
G|-----------------------4---4-----------|
D|------------------4--6---6---6--4--6---|
A|----------2--4--6----------------------|
E|--4--2--4------------------------------|

E|---------------------------------------|
B|---------------------------------------|
G|---------------------------------------|
D|--4---4--------------------------------|
A|----6----------------------------------|
E|----------2-2--------------------------|

^ It's gonna take some practice, but give it time and take it in short bites while 
to the song!

[Verse 1.21]

Music knows it is and always will
Be one of the things that life just won't quit
But here are some of music's pioneers
That time will not allow us to forget
For there's Basie, Miller, Sachimo
And the king of all Sir Duke
And with a voice like Ella's ringing out
There's no way the band can lose

[Chorous 1.47] x 3

[Solo-thing again]

[Chorous 2.41] x 6

[Solo-thing again]



************************************

| x  Dead note
| /  Slide up 

************************************

            
            
Suggest correction
Creating personal tab
Creating personal tab
You can edit any tab online and save it as your Personal.

You can edit, replace or remove any tab part or add personal notes – all changes will be seen only by you.

Personal tabs can be accessed anytime from any device, even offline.
Learn more »
comments
print report bad tab
1 comment total.
0 reply
jordanguitar99 13 Mar 16, 2016 05:32 AM

This is really wrong. Pretty much all the parts are wrong. But cheers for trying. If there is a more detailed tab on the web i would love to know.

guest
You may want to rate the tab now too:
select rating
Wanna post a correction for this tab? Suggest correction