Oops, an error
Loading. Please wait.
We have Chord Pro version of Superstition.
It's the closest thing you can get to the original song and it has interactive parts. Check out the tab »
×

Superstition bass

version 4
version 4

Whole song

Interactive

26,901 views 138 this week
3 commentsread comments
1 2 3 4 5
x 10
add to favorites
×
Save as Personal and add changes to this tab that will be seen only by you. Learn more ›
×
You can save this tab as Personal to edit and correct it or add notes. All changes will be seen only by you. Learn more »
launch autoscroll
font size
0
reset
guitar tuner
backing track
0:00
0:00
edit
Autoscroll
slow
fast
+/-
esc
set tempo
stop
Stevie Wonder
Superstition

Tuned Eb

This whole song is played on a keyboard bass originally
so this is purely a tab for your enjoyment or if like me
you are covering this song in your covers/originals band,
now this is the way i've chosen to play this song so that
doesn't mean that i'm claiming to have a 100% correct tab.


  Intro      Verse Riff
F#|---------|---------------------------|
C#|---------|---------------------------|
G#|-5-------|-----------5h7-------------|
D#|---3-5-7-|--0-0-0-0-0---00-0h5p0-321-|


   Verse                      End of verse to bring you into Pre Chorus
F#|--------------------------|---------------------------|
C#|--------------------------|-------------------------5-|
G#|----------5h7-------------|-----------7----------5-7--|
D#|-0-0-0-0-0---00-0h5p0-321-|--0-0-0-0-5-00-0-5h7p5-----|

   Verse Riff/Main Riff
F#|----------------------------|
C#|-------5x-----------5x------|
G#|--7-5-7--5x5h7---5-7--5x5h7-|
D#|-0------------5-7-----------|


   Pre Chorus (both of these are played randomly)
F#|---------------------------------------|
C#|-----------------------7/9-5/6\5/6\5/6-|
G#|--5/7-5/7---5-77-7-5-75----------------|
D#|-0---0---567-7-------------------------|

F#|-------------------------------|
C#|-----------------------7/9-5-7-|
G#|--5/7-5/7---5-77-7-5-75--------|
D#|-0---0---567-7-----------------|

   Chorus
F#|-------------------------6---------|
C#|--9----10----9----8----7--7--------|
G#|----------------9------------------|
D#|-7-x7-8--x8-7-x7-6-x6-5-5--5-77777-|


            
            
Suggest correction
Creating personal tab
Creating personal tab
You can edit any tab online and save it as your Personal.

You can edit, replace or remove any tab part or add personal notes – all changes will be seen only by you.

Personal tabs can be accessed anytime from any device, even offline.
Learn more »
comments
print report bad tab
3 comments total. show 1 bad comment
+1 reply
russellguldin 10 Dec 19, 2013 04:42 AM

This sounds really good! Although James Jamerson would've most likely played it lower on the neck with more open notes (he was an upright man and played as such even after he moved over to the P-Bass), my little hands appreciate playing it higher on the neck.

0 reply
GSnail 187 Mar 19, 2016 02:13 PM

Would love to hear what exactly is so clearly wrong about this tab? Tuning is correct and parts are correct to the track!

guest
You may want to rate the tab now too:
select rating
Wanna post a correction for this tab? Suggest correction