Oops, an error
Loading. Please wait.

Amber tab

version 1
version 1

Whole song

Interactive

32,266 views 51 this week
5 commentsread comments
1 2 3 4 5
x 5
add to favorites
×
Save as Personal and add changes to this tab that will be seen only by you. Learn more ›
×
You can save this tab as Personal to edit and correct it or add notes. All changes will be seen only by you. Learn more »
launch autoscroll
font size
0
reset
how to read this tab
guitar tuner
edit
Autoscroll
slow
fast
+/-
esc
set tempo
stop
Author
Stick to your Guns – Amber
Tuning: D Standard
You can see my shitty cover at http://www.youtube.com/watch?v=9ZoeIMNVf1U

[Intro/Chorus Lead]
[Guitar 1](Palm-mute the notes gently)
D|-----------------------------10-x8--------------------|
A|---------12-12-12--10-10-10----------7-x8--8-x8-------|
F|-9-9-9------------------------------------------------|
C|------------------------------------------------------|
G|------------------------------------------------------|
D|------------------------------------------------------|

[Guitar 2]
D|-----------------------------------------------------------|
A|-----------------------------------------------------------|
F|---------10-/-9--------------------------------------------|
C|-2-2-2—--10-/-9--3-2---------------------------------------|
G|-2-2-2----8-/-7--3-2---------------------------------------|
D|-0-0-0-----------1-0---1-1-4-4-----------------------------|
   x x x                 x x x x

D|-----------------------------------------------------------|
A|-----------------------------------------------------------|
F|---------10-/-9--9-/-8-------------------------------------|
C|-2-2-2—--10-/-9--9-/-8-------------------------------------|
G|-2-2-2----8-/-7--7-/-6-------------------------------------|
D|-0-0-0-------------------3-3-1-1---------------------------|
   x x x                   x x x x

D|-----------------------------------------------------------|
A|-----------------------------------------------------------|
F|---------10-/-9--------------------------------------------|
C|-2-2-2—--10-/-9--3-2---------------------------------------|
G|-2-2-2----8-/-7--3-2---------------------------------------|
D|-0-0-0-----------1-0---1-1-4-4-----------------------------|
   x x x                 x x x x

D|-----------------------------------------------------------|
A|-----------------------------------------------------------|
F|---------10-/-9--9-/-8-------------------------------------|
C|-2-2-2—--10-/-9--9-/-8---5---------------------------------|
G|-2-2-2----8-/-7--7-/-6---5---------------------------------|
D|-0-0-0-------------------3---------------------------------|
   x x x                   

[Verse/Main Riff]
[Guitar 1 & 2]
D|-----------------------------------------------------------|
A|-----------------------------------------------------------|
F|---------10-/-9--------------------------------------------|
C|-2-2-2—--10-/-9--3-2---------------------------------------|
G|-2-2-2----8-/-7--3-2---------------------------------------|
D|-0-0-0-----------1-0---1-1-4-4-----------------------------|
   x x x                 x x x x

D|-----------------------------------------------------------|
A|-----------------------------------------------------------|
F|---------10-/-9--9-/-8-------------------------------------|
C|-2-2-2—--10-/-9--9-/-8-------------------------------------|
G|-2-2-2----8-/-7--7-/-6-------------------------------------|
D|-0-0-0-------------------3-3-1-1---------------------------|
   x x x                   x x x x

[Pre-Chorus]
(Guitar 1)
D|--------------------------10-x8-----------------------12-----|
A|-----------------10-10-10--------------12-x4--15-x3--b15-----|
F|-9-9-9--12-12-12----------------11-x4------------------------|
C|-------------------------------------------------------------|
G|-------------------------------------------------------------|
D|-------------------------------------------------------------|

[Guitar 2]
D|-----------------------------------------------------------------|
A|-----------------------------------------------------------------|
F|----5----------7-------------------------------------------------|
C|----5—---------7---(Palm-muted a bit around the last few strums)-|
G|----3----------5-------------------------------------------------|
D|-----------------------------------------------------------------|

[Chorus]
(Guitar 1)
(Play the Lead from the Intro)

[Guitar 2]
D|---------------------------------------------------|
A|---------------------------------------------------|
F|--------------------5-5-5-5--7-7-7-7---------------|
C|-2-2-2-2--5-5-5-5---5-5-5-5--7-7-7-7---------------|
G|-2-2-2-2--5-5-5-5---3-3-3-3--5-5-5-5---------------|
D|-0-0-0-0--3-3-3-3----------------------------------|

(Back to the main riff for Guitar 2)

[Guitar 1](come in at 1:21)
D|---------------------------------------------------|
A|---------------------------------------------------|
F|---------------------------------------------------|
C|-2-2---2-2------------2-2---2-2--------------------|
G|-2-2---2-2------------2-2---2-2--------------------|
D|-0-0---0-0--1-1-4-4---0-0---0-0--3-3-1-1-----------|
   x x   x x            x x   x x 

[Guitar 2]
D|-----------------------------------------------------------|
A|-----------------------------------------------------------|
F|---------10-/-9--------------------------------------------|
C|-2-2-2—--10-/-9--3-2---------------------------------------|
G|-2-2-2----8-/-7--3-2---------------------------------------|
D|-0-0-0-----------1-0---1-1-4-4-----------------------------|
   x x x                 x x x x

D|-----------------------------------------------------------|
A|-----------------------------------------------------------|
F|---------10-/-9--9-/-8-------------------------------------|
C|-2-2-2—--10-/-9--9-/-8-------------------------------------|
G|-2-2-2----8-/-7--7-/-6-------------------------------------|
D|-0-0-0-------------------3-3-1-1---------------------------|
   x x x                   x x x x

[Line before Breakdown]
[Guitar 1 & 2]
D|------------------------------------------------------------|
A|------------------------------------------------------------|
F|------------------------------------------------------------|
C|-------------------------2--2-------------------------------|
G|-------------3-----------2--2-------------------------------|
D|-4--3--1--0-----4--3--1--0--0-------------------------------|

[Breakdown]
[Guitar 1 & 2]
D|--------------------------------------------------------------------|
A|--------------------------------------------------------------------|
F|--------------------------------------------------------------------|
C|-----------2-------------------------------------6-5-3-5------------|
G|-----------2---(Let it Ring)---------------------6-5-3-5------------|
D|-1-1-4-4---0--------------------Pick slide-------4-3-1-3------------|
   x x x x

[Guitar 1 & 2]
D|-------------------------------------------------------------------|
A|-------------------------------------------------------------------|
F|------------------4------------------------------------------------|
C|-2-2----2-2-2-2---2-2---6-5-3-5---3-3----3-3-3-3---6-6--6-6-6-6----|
G|-2-2----2-2-2-2---2-2---6-5-3-5---3-3----3-3-3-3---6-6--6-6-6-6----|
D|-0-0----0-0-0-0---0-0---4-3-1-3---1-1----1-1-1-1---4-4--4-4-4-4----| x2
   x x    x x x x     x             x x    x x x x   x x  x x x x

[Guitar 1]
D|----------------------------------------------------------------|
A|----------------------------------------------------------------|
F|-------------------------5-5-5-5--------------------------------|
C|-2-2-2-2-2-2--5-5-5-5-5--5-5-5-5--7-7-7-7-----------------------|
G|-2-2-2-2-2-2--5-5-5-5-5--3-3-3-3--7-7-7-7-----------------------|
D|-0-0-0-0-0-0--3-3-3-3-3-----------5-5-5-5-----------------------| x2

[Guitar 2]
D|----------------------------------------------------------------|
A|----------------------------------------------------------------|
F|-9-9--12-11---7--9-9--12-11--7--12-12-12-12--5-5--4-2-----------|
C|-x-x---x--x---x--x-x---x--x--x---x--x--x--x--x-x--x-x-----------|
G|-7-7--10--9---5--7-7--10--9--5--10-10-10-10--3-3--2-2-----------|
D|----------------------------------------------------------------| x2

[Guitar 1 & 2]
D|-------------------------------------------------------------------|
A|-------------------------------------------------------------------|
F|------------------4------------------------------------------------|
C|-2-2----2-2-2-2---2-2---6-5-3-5---3-3----3-3-3-3---6-6--6-6-6-6----|
G|-2-2----2-2-2-2---2-2---6-5-3-5---3-3----3-3-3-3---6-6--6-6-6-6----|
D|-0-0----0-0-0-0---0-0---4-3-1-3---1-1----1-1-1-1---4-4--4-4-4-4----| x2
   x x    x x x x     x             x x    x x x x   x x  x x x x

[Guitar 1]
D|----------------------------------------------------------------|
A|----------------------------------------------------------------|
F|-------------------------5-5-5-5--------------------------------|
C|-2-2-2-2-2-2--5-5-5-5-5--5-5-5-5--7-7-7-7-----------------------|
G|-2-2-2-2-2-2--5-5-5-5-5--3-3-3-3--7-7-7-7-----------------------|
D|-0-0-0-0-0-0--3-3-3-3-3-----------5-5-5-5-----------------------| x2

[Guitar 2]
D|----------------------------------------------------------------|
A|----------------------------------------------------------------|
F|-9-9--12-11---7--9-9--12-11--7--12-12-12-12--5-5--4-2-----------|
C|-x-x---x--x---x--x-x---x--x--x---x--x--x--x--x-x--x-x-----------|
G|-7-7--10--9---5--7-7--10--9--5--10-10-10-10--3-3--2-2-----------|
D|----------------------------------------------------------------|

D|----------------------------------------------------------------|
A|----------------------------------------------------------------|
F|-9-9--12-11---7--9-9--12-11--7--12-12-12-12--14-14--16-16-------|
C|-x-x---x--x---x--x-x---x--x--x---x--x--x--x---x--x---x--x-------|
G|-7-7--10--9---5--7-7--10--9--5--10-10-10-10--12-12--14-14-------|
D|----------------------------------------------------------------|

[Pre-Chorus]

[Guitar 1]
D|--------------------------10-x8-----------------------12-----|
A|-----------------10-10-10--------------12-x4--15-x3--b15-----|
F|-9-9-9--12-12-12----------------11-x4------------------------|
C|-------------------------------------------------------------|
G|-------------------------------------------------------------|
D|-------------------------------------------------------------|

[Guitar 2]
D|-----------------------------------------------------------------|
A|-----------------------------------------------------------------|
F|----5----------7-------------------------------------------------|
C|----5—---------7---(Palm-muted a bit around the last few strums)-|
G|----3----------5-------------------------------------------------|
D|-----------------------------------------------------------------|

[Chorus] 
[End]
G5

            
            
Suggest correction
Creating personal tab
Creating personal tab
You can edit any tab online and save it as your Personal.

You can edit, replace or remove any tab part or add personal notes – all changes will be seen only by you.

Personal tabs can be accessed anytime from any device, even offline.
Learn more »
comments
print report bad tab
5 comments total. Showing first comments.
0 reply
parkers18 10 Sep 15, 2010 02:00 PM

in the begining and the rest of the song..theres another chorf after the 2-2-0 its 3-3-1 2-2-0 2-2-0 11 44

-1 reply
parkers18 10 Sep 15, 2010 02:01 PM

but really good tab though bro

0 reply
Sam Rulez D00d 948 Sep 18, 2010 06:23 AM

great tab! you should tab some more off Hope Divison

guest
You may want to rate the tab now too:
select rating
Wanna post a correction for this tab? Suggest correction