Oops, an error
Loading. Please wait.

Better Ash Than Dust tab

version 1
version 1

Whole song

  • Music video version, might not be album version.

Interactive

550 views 6 this week
no commentswrite comment
1 2 3 4 5
2 more votes to show rating
add to favorites
×
Save as Personal and add changes to this tab that will be seen only by you. Learn more ›
×
You can save this tab as Personal to edit and correct it or add notes. All changes will be seen only by you. Learn more »
launch autoscroll
font size
0
reset
how to read this tab
guitar tuner
edit
Autoscroll
slow
fast
+/-
esc
set tempo
stop
About this tab version
Music video version, might not be album version. Was this info helpful? Yes No
[Better Ash Than Dust]
[Music Video]
[Stick To Your Guns]

Tuning: D A D G B E
Playthrough: https://www.youtube.com/watch?v=BPJg9CvhYMY

[Riff 1a] - [00:00] - [00:37] - [6x]
- -----------------------------------------------------------------
- -11111111111111--11111111111111--66666666666666--55555555555555--
- -22222222222222--22222222222222--77777777777777--55555555555555--
- -22222222222222--22222222222222--77777777777777--55555555555555--
- -00000000000000--00000000000000--00000000000000--00000000000000--
- -----------------------------------------------------------------

[Riff 1b] - [00:22] - [00:37] - [2x]
- ---------------------------------13------------------------------
- -------13------------------------------------17------------------
- -14----------16------------------------14------------------------
- -----------------------------------------------------------------
- -----------------------------------------------------------------
- -----------------------------------------------------------------

[Riff 1c] - [00:33] - [00:37]
- ---------------------------------
- ---------------------------------
- ---------------------------------
- -0-------------------------------
- -0-0-0-0-0-0-0-0-3-3-3-3-3-5-5-5-
- -0-0-0-0-0-0-0-0-3-3-3-3-3-5-5-5-
PM   .............................

[Riff 2, Guitar 1 & 2] - [00:37] - [00:44]
- -----------------------------------------------------------------
- -----------------------------------------------------------------
- -----------------------------------------------------------------
- -----------------------------------------------------------------
- -----------------------------------------------------------------
- -----------------------------------------------------------------
-
- -----------------------------------------------------------------
- -----------------------------------------------------------------
- -----------------------------------------------------------------
- -----2---2-------2---2-------3-------2---2-------2---2-------4---
- -0-0-0---0---0-0-0---0---0-0-1---0-0-0---0---0-0-0---0---0-0-2---
- -0-0-2---2---0-0-2---2---0-0-3---0-0-2---2---0-0-2---2---0-0-4---
PM ...         ...         ...     ...         ...         ...


- -----------------------------------------------------------------
- -----------------------------------------------------------------
- -----------------------------------------------------------------
- -------------------------------------------------4---4---4---0---
- -------------------------------------------------4---4---4---0---
- -------------------------------------------------4---4---4---0---
-
- -----------------------------------------------------------------
- -----------------------------------------------------------------
- -----------------------------------------------------------------
- -----3---3-------3---3-------4-------3---3-------4---4---4---0---
- -0-0-1---1---0-0-1---1---0-0-2---0-0-1---1---0-0-4---4---4---0---
- -0-0-3---3---0-0-3---3---0-0-4---0-0-3---3---0-0-4---4---4---0---
PM ...         ...         ...     ...         ...


[Riff 3] - [00:44] - [00:59] - [x2]
- -----------------------------------------------------------------
- -----------------------------------------------------------------
- -----------------------------------------------------------------
- -----2---2-------2---2-------3-------2---2-------2---2-------4---
- -0-0-0---0---0-0-0---0---0-0-1---0-0-0---0---0-0-0---0---0-0-2---
- -0-0-2---2---0-0-2---2---0-0-3---0-0-2---2---0-0-2---2---0-0-4---
PM ...         ...         ...     ...         ...         ...

- -----------------------------------------------------------------
- -----------------------------------------------------------------
- -----------------------------------------------------------------
- -----3---3-------3---3-------4-------3---3-------4---4---4---0---
- -0-0-1---1---0-0-1---1---0-0-2---0-0-1---1---0-0-4---4---4---0---
- -0-0-3---3---0-0-3---3---0-0-4---0-0-3---3---0-0-4---4---4---0---
PM ...         ...         ...     ...         ...


[Riff 4, Guitar 1 & 2] - [00:59] - [01:07]
- -----------------------------------------------------------------
- -----------------------------------------------------------------
- -----------------------------------------------------------------
- -----2---2-------2---2-------3-------2---2-------2---2-------4---
- -0-0-0---0---0-0-0---0---0-0-1---0-0-0---0---0-0-0---0---0-0-2---
- -0-0-2---2---0-0-2---2---0-0-3---0-0-2---2---0-0-2---2---0-0-4---
PM ...         ...         ...     ...         ...         ...
- -----------------------------------------------------------------
- -----------------------------------------------------------------
- -----2---2-------2---2-------3-------2---2-------2---2-------4---
- -----x---x-------x---x-------x-------x---x-------x---x-------x---
- -0-0-0---0---0-0-0---0---0-0-1---0-0-0---0---0-0-0---0---0-0-2---
- -0-0---------0-0---------0-0-----0-0---------0-0---------0-0-----
PM ...         ...         ...     ...         ...         ...


- -----------------------------------------------------------------
- -----------------------------------------------------------------
- -----------------------------------------------------------------
- -----3---3-------3---3-------4-------3---3-------4---4---4---0---
- -0-0-1---1---0-0-1---1---0-0-2---0-0-1---1---0-0-4---4---4---0---
- -0-0-3---3---0-0-3---3---0-0-4---0-0-3---3---0-0-4---4---4---0---
PM ...         ...         ...     ...         ...
- -----------------------------------------------------------------
- -----------------------------------------------------------------
- -----3---3-------3---3-------4-------3---3-----------------------
- -----x---x-------x---x-------x-------x---x-------4---4---4---0---
- -0-0-1---1---0-0-1---1---0-0-2---0-0-1---1---0-0-4---4---4---0---
- -0-0---------0-0---------0-0-----0-0---------0-0-4---4---4---0---
PM ...         ...         ...     ...         ...


[Riff 5] - [01:07] - [01:04]
- -----------------------------------------------------------------
- -11111111111111--11111111111111--66666666666666--555555555-------
- -22222222222222--22222222222222--77777777777777--555555555-------
- -22222222222222--22222222222222--77777777777777--555555555-------
- -00000000000000--00000000000000--00000000000000--000000000-------
- -----------------------------------------------------------------

[Riff 6] - [01:04] - [01:30] - [x2]
- -----------------------------------------------------------------
- -----------------------------------------------------------------
- -10---\5-------------------------9----\4-------------------------
- -x-----x-------------------------x-----x-------------------------
- -8----\3-------------------------7----\2-------------------------
- -----------------------------------------------------------------


[Riff 7, Guitar 1 & 2] - [01:30] - [01:46]
- --------------------------------------------------------------------------------
- ---------------------------------5--5--5--3---3-3-3-3-3-3-3-3-3-3-3-6--6--6--5--
- -----5---------------------------7--7--7--4---4-4-4-4-4-4-4-4-4-4-4-7--7--7--5--
- -5/7---7---7-7-7-7-7-7-7-7-7-7-7-10-10-10-7---7-7-7-7-7-7-7-7-7-7-7-10-10-10-7--
- --------------------------------------------------------------------------------
- --------------------------------------------------------------------------------
-
- --------------------------------------------------------------------------------
- --------------------------------------------------------------------------------
- --------------------------------------------------------------------------------
- -------7---7-7-7-7-7-7-7-7-7-7-7-10-10-10-9---9-9-9-9-9-9-9-9-9-9-9-15-15-15-10-
- -------3---3-3-3-3-3-3-3-3-3-3-3-7--7--7--5---5-5-5-5-5-5-5-5-5-5-5-12-12-12-7--
- -------3---3-3-3-3-3-3-3-3-3-3-3-7--7--7--5---5-5-5-5-5-5-5-5-5-5-5-12-12-12-7--


- -------------------------------------------------------------------------------
- ---5--5--5--5--5--5--5--5--5--5--5--8--8--8--3---3-3-3-3-3-3-3-4-4-4-4-4-4-4-4-
- ---5--5--5--5--5--5--5--5--5--5--5--7--7--7--4---4-4-4-4-4-4-4-7-7-7-7-7-7-7-7-
- ---7--7--7--7--7--7--7--7--7--7--7--10-10-10-7---7-7-7-7-7-7-7-6-6-6-6-6-6-6-6-
- -------------------------------------------------------------------------------
- -------------------------------------------------------------------------------
-
- -------------------------------------------------------------------------------
- -------------------------------------------------------------------------------
- -------------------------------------------------------------------------------
- ---10-10-10-10-10-10-10-10-10-10-10-12-12-12-9---9-9-9-9-9-9-9-9-9-9-9-9-9-9-9-
- ---7--7--7--7--7--7--7--7--7--7--7--10-10-10-5---5-5-5-5-5-5-5-5-5-5-5-5-5-5-5-
- ---7--7--7--7--7--7--7--7--7--7--7--10-10-10-5---5-5-5-5-5-5-5-6-6-6-6-6-6-6-6-


[Riff 8, Guitar 1 & 2] - [01:46] - [01:53]
- ---------------------------------------------------------------------------------
- -11111111111111------------------11111111111111----------------------------------
- -22222222222222------------------22222222222222----------------------------------
- -22222222222222------------------22222222222222--5-----4-----5-----4-----3---2---
- -00000000000000------------------00000000000000--3---0-2---0-3---0-4---0-3---2---
- -------------------------------------------------5---0-4---0-5---0-4---0-3---2---
PM                                                     .     .     .     .
- ---------------------------------------------------------------------------------
- -----------------11111111111111--11111111111111----------------------------------
- -----------------22222222222222--22222222222222----------------------------------
- -----------------22222222222222--22222222222222--5-----4-----5-----4-----3---2---
- -----------------00000000000000--00000000000000--3---0-2---0-3---0-4---0-3---2---
- -------------------------------------------------5---0-4---0-5---0-4---0-3---2---
PM                                                     .     .     .     .


[Riff 3] - [01:53] - [02:00]
[Riff 4, Guitar 1 & 2] - [02:00] - [02:08]

[Riff 9, Guitar 1 & 2] - [02:08] - [02:22]
- -----------------------------------------------------------------
- -----------------------------------------------------------------
- -----------------------------------------------------------------
- ---------3-------------------------------3---------------3-------
- ----3--7----------------------------0--7------------0--7---------
- -7-------------------------------0---------------3---------------
-
- -----------------------------------------------------------------
- -----------------------------------------3---------------3-------
- ------------------------------------5-------5-------5-------5----
- --------------------------------/3-----3-------3-5-----5-------5-
- -0--------------/3-------2br-------------------------------------
- -----------------------------------------------------------------


- -----------------------------------------------------------------
- -----------------------------------------------------------------
- ------------------------------------------------------------7----
- ---------3-----------------------0---------------3------/5-----5-
- ----3--7-------------------------0-0-0-0-0-0-0-0-3---------------
- -7-------------------------------0-0-0-0-0-0-0-0-3---------------
- PM                                 .............
- -----------------------------------------------------------------
- ---------------------------------3-3-3-3-3-3-3-------------------
- ---------------------------------5-5-5-5-5-5-5----[3]------------
- ---------------------------------3-3-3-3-3-3-3--[3]--------------
- -0--------------/3-------2br------------------[3]----------------
- -----------------------------------------------------------------
PM                                   ...........


[Riff 10] - [02:22] - [02:37]
- --------------------------------------------------------------------------
- -3---3-3-3-3-3-3-3-3-3-3-3-5--5--5--3---3-3-3-3-3-3-3-3-3-3-3-6--6--6--5--
- -5---5-5-5-5-5-5-5-5-5-5-5-7--7--7--4---4-4-4-4-4-4-4-4-4-4-4-7--7--7--5--
- -7---7-7-7-7-7-7-7-7-7-7-7-10-10-10-7---7-7-7-7-7-7-7-7-7-7-7-10-10-10-7--
- --------------------------------------------------------------------------
- --------------------------------------------------------------------------

- -----------------------------------------------------------------------------
- ---5--5--5--5--5--5--5--5--5--5--5--8--8--8--3---3-3-3-3-3-3-3-3-3-3---------
- ---5--5--5--5--5--5--5--5--5--5--5--7--7--7--4---4-4-4-4-4-4-4-4-4-4-------5-
- ---7--7--7--7--7--7--7--7--7--7--7--10-10-10-7---7-7-7-7-7-7-7-7-7-7-7-5/7---
- -----------------------------------------------------------------------------
- -----------------------------------------------------------------------------

[Riff 11] - [02:37] - [02:52]
- --------------------------------------------------------------------------
- ---------------------------5--5--5--3---3-3-3-3-3-3-3-3-3-3-3-6--6--6--5--
- ---------------------------7--7--7--4---4-4-4-4-4-4-4-4-4-4-4-7--7--7--5--
- -7---7-7-7-7-7-7-7-7-7-7-7-10-10-10-7---7-7-7-7-7-7-7-7-7-7-7-10-10-10-7--
- --------------------------------------------------------------------------
- --------------------------------------------------------------------------
-
- --------------------------------------------------------------------------
- --------------------------------------------------------------------------
- --------------------------------------------------------------------------
- -7---7-7-7-7-7-7-7-7-7-7-7-10-10-10-9---9-9-9-9-9-9-9-9-9-9-9-15-15-15-10-
- -3---3-3-3-3-3-3-3-3-3-3-3-7--7--7--5---5-5-5-5-5-5-5-5-5-5-5-12-12-12-7--
- -3---3-3-3-3-3-3-3-3-3-3-3-7--7--7--5---5-5-5-5-5-5-5-5-5-5-5-12-12-12-7--


- -------------------------------------------------------------------------------
- ---5--5--5--5--5--5--5--5--5--5--5--8--8--8--3---3-3-3-3-3-3-3-4-4-4-4-4-4-4-4-
- ---5--5--5--5--5--5--5--5--5--5--5--7--7--7--4---4-4-4-4-4-4-4-7-7-7-7-7-7-7-7-
- ---7--7--7--7--7--7--7--7--7--7--7--10-10-10-7---7-7-7-7-7-7-7-6-6-6-6-6-6-6-6-
- -------------------------------------------------------------------------------
- -------------------------------------------------------------------------------
-
- -------------------------------------------------------------------------------
- -------------------------------------------------------------------------------
- -------------------------------------------------------------------------------
- ---10-10-10-10-10-10-10-10-10-10-10-12-12-12-9---9-9-9-9-9-9-9-9-9-9-9-9-9-9-9-
- ---7--7--7--7--7--7--7--7--7--7--7--10-10-10-5---5-5-5-5-5-5-5-5-5-5-5-5-5-5-5-
- ---7--7--7--7--7--7--7--7--7--7--7--10-10-10-5---5-5-5-5-5-5-5-6-6-6-6-6-6-6-6-


[Riff 12] - [02:52] - [03:07]
- -----------------------------------------------------------------
- -5-5-5-5-5-5-5-5-5-5-5-5-5-5-5-5---------------------6-6-6-8-8-8-
- -7-7-7-7-7-7-7-7-7-7-7-7-7-7-7-7-7-7-7-7-7-7-7-7-7-7-7-7-7-7-7-7-
- -----------------------------------------------------------------
- -----------------------------------------------------------------
- -----------------------------------------------------------------
PM ...............................................................

- -----------------------------------------------------------------
- -5-5-5-5-5-5-5-5-5-5-5-5-5-5-5-5-----------------6-6-6-6-6-8-8-8-
- -7-7-7-7-7-7-7-7-7-7-7-7-7-7-7-7-7-7-7-7-7-7-7-7-7-7-7-7-7-7-7-7-
- -----------------------------------------------------------------
- -----------------------------------------------------------------
- -----------------------------------------------------------------
PM .........................................................

[Riff 1c] - [03:03] - [03:07]


[Riff 13, Guitar 1 & 2] - [03:07] - [03:14]
- -----------------------------------------------------------------
- -----------------------------------------------------------------
- -----------------------------------------------------------------
- -----------------------------3-------2---2-------2---2-------4---
- -----------------------------1---0-0-0---0---0-0-0---0---0-0-2---
- -----------------------------3---0-0-2---2---0-0-2---2---0-0-4---
PM                                 ...         ...         ...
- -----------------------------------------------------------------
- -----------------------------------------------------------------
- -----------------------------------------------------------------
- -----2---2-------2---2-------3-------2---2-------2---2-------4---
- -0-0-0---0---0-0-0---0---0-0-1---0-0-0---0---0-0-0---0---0-0-2---
- -0-0-2---2---0-0-2---2---0-0-3---0-0-2---2---0-0-2---2---0-0-4---
PM ...         ...         ...     ...         ...         ...


- -----------------------------------------------------------------
- -----------------------------------------------------------------
- -----------------------------------------------------------------
- -----3---3-------3---3-------4-------3---3-------4---4---4---0---
- -0-0-1---1---0-0-1---1---0-0-2---0-0-1---1---0-0-4---4---4---0---
- -0-0-3---3---0-0-3---3---0-0-4---0-0-3---3---0-0-4---4---4---0---
PM ...         ...         ...     ...         ...
- -----------------------------------------------------------------
- -----------------------------------------------------------------
- -----------------------------------------------------------------
- -----3---3-------3---3-------4-------3---3-------4---4---4---0---
- -0-0-1---1---0-0-1---1---0-0-2---0-0-1---1---0-0-4---4---4---0---
- -0-0-3---3---0-0-3---3---0-0-4---0-0-3---3---0-0-4---4---4---0---
PM ...         ...         ...     ...         ...


[Symbols]

PM... Palm Mute notes with (...) under them
AP... Alternate Pick notes with (...) under them
h     Hammer On
p     Pull Off
[ ]   Harmonic
/     Slide Up
\     Slide Down
x     Dead Note
b     Bend
hb    Hold Bend
pb    Pre-Bend
r     Release Bend
(x )  Play Notes x amount of times
~     Let Ring
\\\   Pick Slide Down
/ 3 \ Notes are triplets (3 notes in the space of two)
w\    Whammy Bar Down
w/    Whammy Bar Up
wh    Whammy Bar Hold
T     Right Hand Tap
L     Left Hand Tap

:)

            
            
Suggest correction
Creating personal tab
Creating personal tab
You can edit any tab online and save it as your Personal.

You can edit, replace or remove any tab part or add personal notes – all changes will be seen only by you.

Personal tabs can be accessed anytime from any device, even offline.
Learn more »
Give kudos to tab author, rate the tab!
1 2 3 4 5
comments
print report bad tab
guest
You may want to rate the tab now too:
select rating
Wanna post a correction for this tab? Suggest correction