Oops, an error
Loading. Please wait.

Beirut Moon bass

578 views 3 this week
no commentswrite comment
1 2 3 4 5
3 more votes to show rating
add to favorites
×
Save as Personal and add changes to this tab that will be seen only by you. Learn more ›
×
You can save this tab as Personal to edit and correct it or add notes. All changes will be seen only by you. Learn more »
launch autoscroll
font size
0
reset
guitar tuner
edit
Autoscroll
slow
fast
+/-
esc
set tempo
stop
This is my first tab and I am only 13 so this is probably not right but this is how me 
my band play it. Listen to the song to get the rhythm. U may need to add some more notes 
on the end of some of the verses.

Enjoy

Intro
G-------------------------------------------------------------/ x2
D-------------------------------------------------------------/
A-------------------------------------------------------------/
E—3-3-3-3-3-3-3-3-5-5-5-5-5-5-5-5-7-7-7-7-7-7-7-7-7-7-7-7-7-7-/

Verse
G-------------------------------------------------------------/ x 6
D-------------------------------------------------------------/
A-------------------------------------------------------------/
E—3-3-3-3-3-3-3-3-5-5-5-5-5-5-5-5-7-7-7-7-7-7-7-7-7-7-7-7-7-7-/
   We’d like..................................................do
   Well, you knew............................................fool
   So, don’t.................................................rules
   Keep your.................................................through
   It seems..................................................rescues
   But if.................................................... moon

Chorus (play one note on each syllable)
G-------------------------------------------------------------/
D-------------------------------------------------------------/
A-------------------------------------------------------------/
E-3-5-3-5-7-9-3-5-3-5-7-5-7-9-7-3-5-3-5-7-9-3-5-3-5-7-5-7-9-7-/
Under a Beirut moon......................................haven’t got a clue

Verse

Chorus

Bridge
G-------------------------------------------------/
D-------------------------------------------------/
A-------------------------------------------------/
E-3-3-3-3-3-5-7-5-3-3-3-3-3-5-7-5-3-3-3-3-3-5-7-5-/

G------------------------------------/
D------------------------------------/
A------------------------------------/
E -3-3-3-3-3-3-3-3-5-5-5-5-5-5-5-5-7-/
And though you dream..............moon
Solo
G-------------------------------------------------/x6
D-------------------------------------------------/
A-------------------------------------------------/
E-3-3-3-3-3-3-3-3-5-5-5-5-5-5-5-5-7-7-7-7-7-7-7-7-/

Verse
Chorus x2.5

Outro
G-------------------------------/
D-------------------------------/
A-------------------------------/
E-3-3-3-5-7-3-3-3-5-7-3-3-3-5-7-/


            
            
Suggest correction
Creating personal tab
Creating personal tab
You can edit any tab online and save it as your Personal.

You can edit, replace or remove any tab part or add personal notes – all changes will be seen only by you.

Personal tabs can be accessed anytime from any device, even offline.
Learn more »
Give kudos to tab author, rate the tab!
1 2 3 4 5
comments
print report bad tab
guest
You may want to rate the tab now too:
select rating
Wanna post a correction for this tab? Suggest correction