Oops, an error
Loading. Please wait.

Fly The Flag tab

version 1
version 1

Whole song

3,495 views 3 this week
2 commentsread comments
1 2 3 4 5
x 3
add to favorites
×
Save as Personal and add changes to this tab that will be seen only by you. Learn more ›
×
You can save this tab as Personal to edit and correct it or add notes. All changes will be seen only by you. Learn more »
launch autoscroll
font size
0
reset
how to read this tab
guitar tuner
edit
Autoscroll
slow
fast
+/-
esc
set tempo
stop
-------------------------------------------------------------------------------
                             Fly The Flag - Stiff Little Fingers

-------------------------------------------------------------------------------

Tabbed by:Mick 2009

Intro


      Q     H         Q        Q.      E   Q     Q        Q     H         Q     
E||------------------------|--------------------------|------------------------|
B||------------------------|--------------------------|------------------------|
G||--12----12--------14----|--11------11--12----11----|--12----12--------14----|
D||---0-----0---------0----|---0-------0---0-----0----|---0-----0---------0----|
A||------------------------|--------------------------|------------------------|
E||------------------------|--------------------------|------------------------|



   Q.      E   Q     Q        Q     H         Q        Q.      E   Q     Q     
--------------------------|------------------------|--------------------------|
--------------------------|------------------------|--------------------------|
--11------11--12----11----|--12----12--------14----|--11------11--12----11----|
---0-------0---0-----0----|---0-----0---------0----|---0-------0---0-----0----|
--------------------------|------------------------|--------------------------|
--------------------------|------------------------|--------------------------|


  Q    H         Q        Q.      E   Q     Q       Q    H         Q     
----------------------|--------------------------|----------------------|
----------------------|--------------------------|----------------------|
--9----9--------12----|--11------11--12----11----|--9----9--------12----|
--0----0---------0----|---0-------0---0-----0----|--0----0---------0----|
----------------------|--------------------------|----------------------|
----------------------|--------------------------|----------------------|


   W                  
--------------------||
--------------------||
--11----------------||
---0----------------||
--------------------||
--------------------||

    (Play 3 times)       (Play 2 times)
    G  A   D
e|--3------2--2--3--2--||--0--3--2--2-----|
B|--3--2---3--3--3--3--||--3--3--3----3---|
G|-----2---2--2--2--2--||--2--2--2------2-|
D|-----2---------------||-----------------|
A|--2--0---------------||-----------------|
E|--3------------------||-----------------|

e|--0--5-|
B|--3--3-|
G|--2----|
D|-------|
A|-------|
E|-------|


G x12

--------------------||
--------------------||
--------------------||
--12-11-9-----------||
----------12--------||
--------------------||

D       Bm                 A
Gimme a country that's red white and blue
D         Bm             A
Gimme the British way honest and true
G                          A
Gimme the chance to be one of the few
G
Gimme gimme gimme gimme 
A
Gimme gimme gimme gimme 

D       Bm              A
Gimme a nation where people are free
D       Bm     A
Free to do and free to be
G                        A
Free to screw you before you screw me
G
Gimme gimme gimme gimme 
A
Gimme gimme gimme gimme 

(Chorus:)
    G    A   D 
Cos, I'm all right, 
    G    A   D 
     I'm all right
G  A  D 
Union Jack, 
 Fly the    flag                Fly the    flag   
--------------------------------------------------------------|
--------------------------------------------------------------|
--9---12----11---11---11--------9---12----11---11---11---9--14|
--0----0-----0----0----0--------0----0-----0----0----0---0---0|
--------------------------------------------------------------|
--------------------------------------------------------------|

G x12

--------------------||
--------------------||
--------------------||
--12-11-9-----------||
----------12--------||
--------------------||



D       Bm                 A
Gimme a Britain that's got back the Great
D         Bm                  A
A race of winners not cramped by the State
G                         A
And only the helpless get left at the gate
G
Gimme gimme gimme gimme 
A
Gimme gimme gimme gimme 

(Chorus:)
    G    A   D 
Cos, I'm all right, 
    G    A   D 
     I'm all right
G  A  D 
Union Jack, 
 Fly the    flag                Fly the    flag   
--------------------------------------------------------------|
--------------------------------------------------------------|
--9---12----11---11---11--------9---12----11---11---11---9--14|
--0----0-----0----0----0--------0----0-----0----0----0---0---0|
--------------------------------------------------------------|
--------------------------------------------------------------|

G x12

--------------------||
--------------------||
--------------------||
--12-11-9-----------||
----------12--------||
--------------------||

G G G G G G G G GGG

A A A A  G  G  G
A A A A  G  G  G
A A A A  G  G  G

A A A A C C C C D D  D D
   
     (Play 3 times)
e|-----------------------|-----------------------------------|
B|-----------------------|-----------------------------------|
G|-12--14--11---11-12-11-|--9--12--11--11-12-11---9--12--11--|
D|--0---0---0----0--0--0-|--0---0---0---0--0--0---0---0---0--|
A|-----------------------|-----------------------------------|
E|-----------------------|-----------------------------------|

e|----------------------------------------------------------------------------------------------|
B|----------------------------------------------------------------------------------------------|
G|-11---11--12--12---11--12--11---9--7--9--11----12---14--12---11--9--11--12--14--12--11--9--7--|
D|--0----0---0---0----0---0---0---0--0--0---0-----0----0---0----0--0---0---0---0---0---0--0--0--|
A|----------------------------------------------------------------------------------------------|
E|----------------------------------------------------------------------------------------------|


     (Play 3 times)
e|-----------------------|----------------------------|
B|-----------------------|----------------------------|
G|-12--14--11------------|--9--12--11------9--12--11--|
D|--0---0---0------------|--0---0---0------0---0---0--|
A|-----------------------|----------------------------|
E|-----------------------|----------------------------|


G    A   D 
I'm all right, 
G    A   D 
I'm all right
G  A  D 
Union Jack, 
  Fly the    flag                Fly the    flag   
---------------------------------------------------------|
---------------------------------------------------------|
--9---12----11---11---11--------9---12----11---11---11---|
--0----0-----0----0----0--------0----0-----0----0----0---|
---------------------------------------------------------|
---------------------------------------------------------|

G    A   D 
I'm all right, 
G    A   D 
I'm all right
G  A  D 
Union Jack, 
  Fly the    flag                Fly the    flag   
---------------------------------------------------------|
---------------------------------------------------------|
--9---12----11---11---11--------9---12----11---11---11---|
--0----0-----0----0----0--------0----0-----0----0----0---|
---------------------------------------------------------|
---------------------------------------------------------|

| /  slide up
| \  slide down
| h  hammer-on
| p  pull-off
| ~  vibrato
| +  harmonic
| x  Mute note
===============================================================================

            
            
Suggest correction
Creating personal tab
Creating personal tab
You can edit any tab online and save it as your Personal.

You can edit, replace or remove any tab part or add personal notes – all changes will be seen only by you.

Personal tabs can be accessed anytime from any device, even offline.
Learn more »
Give kudos to tab author, rate the tab!
1 2 3 4 5
comments
print report bad tab
2 comments total.
0 reply
bradleyboy101 10 Sep 24, 2012 07:54 AM

what are the Qs and Hs

0 reply
SaintJimmy13 109 Jun 01, 2016 04:47 PM, edited at 09:06 pm

Good, but the Rule Britannia bit in the solo doesn't seem quite right to me, I'd add a correction but I can't figure out how to do that in comments.

guest
Wanna post a correction for this tab? Suggest correction