Oops, an error
Loading. Please wait.

Suspect Device bass

version 1
version 1

Whole song

5,443 views 12 this week
no commentswrite comment
1 2 3 4 5
1 last vote to show rating
add to favorites
×
Save as Personal and add changes to this tab that will be seen only by you. Learn more ›
×
You can save this tab as Personal to edit and correct it or add notes. All changes will be seen only by you. Learn more »
launch autoscroll
font size
0
reset
guitar tuner
edit
Autoscroll
slow
fast
+/-
esc
set tempo
stop
Author
Band: Stiff Little Fingers
Song: Suspect Device
Tabbed By: Berto

INTRO
G|------------------|
D|------------------|
A|----7-77-777-7777-|
E|-7h9--------------|

VERSE A
G|---------------------------------|
D|---------------------------------|
A|-------------------------7-7-----|
E|-7-7777777777777-5-55555-----777-|

VERSE B
G|---------------------------------|
D|---------------------------------|
A|-------------------------7-77777-|
E|07-7777777777777-5-55555---------|

VERSE C
G|-------------------|
D|-------------------|X2
A|-5-57--------------|
E|-----5-50-00000000-|

CHORUS A
G|------------------------------------|
D|------------------------------------|
A|---7--7----7--7--777-----------7777-|
E|-79------79----------7-77-5-55------|

CHORUS B
G|------------------------------------|
D|------------------------------------|
A|-----7--7--7--7--7--7---------7-777-|
E|-567------------------7-77-5-5------|

BRIDGE A
G|------------------|
D|------------------|
A|------------------|
E|-5-553-30-0000000-|

BRIDGE B
G|-----------------|
D|-----------------|
A|-67-7-7-7-7-7-77-|
E|-----------------|

END
G|------------------|
D|------------------|
A|-7777777777777777-|
E|------------------|

ORDER

INTRO      X4
VERSE ABC  X2
CHORUS AB  X1

VERSE ABC  X2
CHORUS AB  X1

BRIDGE A   X4
BRIDGE B   X2

CHORUS A   X1
VERSE ABC  X1
CHORUS AB  X1

INTRO      X5
END        X1

            
            
Suggest correction
Creating personal tab
Creating personal tab
You can edit any tab online and save it as your Personal.

You can edit, replace or remove any tab part or add personal notes – all changes will be seen only by you.

Personal tabs can be accessed anytime from any device, even offline.
Learn more »
Give kudos to tab author, rate the tab!
1 2 3 4 5
comments
print report bad tab
guest
You may want to rate the tab now too:
select rating
Wanna post a correction for this tab? Suggest correction