Oops, an error
Loading. Please wait.

Suspect Device bass

version 2
version 2

Whole song

2,691 views 3 this week
2 commentsread comments
1 2 3 4 5
1 last vote to show rating
add to favorites
×
Save as Personal and add changes to this tab that will be seen only by you. Learn more ›
×
You can save this tab as Personal to edit and correct it or add notes. All changes will be seen only by you. Learn more »
launch autoscroll
font size
0
reset
guitar tuner
edit
Autoscroll
slow
fast
+/-
esc
set tempo
stop
Author
Pretty much redone the whole song, have a good listen to the song and tell me what 
you think, cheers.

Come in at 11 seconds


|----------------------------------------|
|--------------------------------7-------|
|------------------65---------75---987---|
|--0-7-777777777777--6555555----7--------|


|---------------------------------------------------------------------|
|---------------------------------------------------------------------|
|--------------65---------7-77777-5-57-------5775--5-57----7777777----|
|--777777777777--6555555--------------500--57----7-----500------------|


|--------------------------------------|
|------------------------------7-------|
|----------------65---------75---987---|
|--7-777777777777--6555555----7--------|


|---------------------------------------------------------------------|
|---------------------------------------------------------------------|
|--------------65---------7-77777-5-57-------5775--5-57----7777777----|
|--777777777777--6555555--------------500--57----7-----500------------|


|-----------------------------------------------------------------------|
|-----------------------------------------------------------------------|
|---------------------------7-777775--7--7--7--7--7-7--------7-777765---|
|--790-00--790-00--03577-55---------7----------------777-555------------|


|--------------------------------------|
|------------------------------7-------|
|----------------65---------75---987---|
|--7-777777777777--6555555----7--------|


|---------------------------------------------------------------------|
|---------------------------------------------------------------------|
|--------------65---------7-77777-5-57-------5775--5-57----7777777----|
|--777777777777--6555555--------------500--57----7-----500------------|


|--------------------------------------|
|------------------------------7-------|
|----------------65---------75---987---|
|--7-777777777777--6555555----7--------|


|---------------------------------------------------------------------|
|---------------------------------------------------------------------|
|--------------65---------7-77777-5-57-------5775--5-57----7777777----|
|--777777777777--6555555--------------500--57----7-----500------------|


|-----------------------------------------------------------------------|
|-----------------------------------------------------------------------|
|---------------------------7-777775--7--7--7--7--7-7--------7-777765---|
|--790-00--790-00--03577-55---------7----------------777-555------------|


|-------------------|
|-------------------|
|-------------543---|
|--55-33-0h---------|  x4

No bass until 2.43

|---------------------|
|---------------------|
|----------7-777765---|
|--777-555------------|


|--------------------------------------|
|------------------------------7-------|
|----------------65---------75---987---|
|--7-777777777777--6555555----7--------|


|---------------------------------------------------------------------|
|---------------------------------------------------------------------|
|--------------65---------7-77777-5-57-------5775--5-57----7777777----|
|--777777777777--6555555--------------500--57----7-----500------------|


|-----------------------------------------------------------------------|
|-----------------------------------------------------------------------|
|---------------------------7-777775--7--7--7--7--7-7--------7-777765---|
|--790-00--790-00--03577-55---------7----------------777-555------------|


|---------------------|
|------------------5--|
|--------------5-57---|
|--00-00-00--57-7-----|   x4


|-------------------|
|-------------------|
|-------------------|
|--000000000000000--|



            
            
Suggest correction
Creating personal tab
Creating personal tab
You can edit any tab online and save it as your Personal.

You can edit, replace or remove any tab part or add personal notes – all changes will be seen only by you.

Personal tabs can be accessed anytime from any device, even offline.
Learn more »
Give kudos to tab author, rate the tab!
1 2 3 4 5
comments
print report bad tab
2 comments total.
0 reply
ZackWyatt 14 Apr 21, 2016 05:53 PM

nice, seems perfect.

0 reply
paulwarning 10 Apr 13, 2017 05:31 AM

this tab is way to busy and wrong and the bass does play from the beginning, version 1 is better but does miss a few fills out

guest
You may want to rate the tab now too:
select rating
Wanna post a correction for this tab? Suggest correction