Oops, an error
Loading. Please wait.

An Undesired Reunion tab

version 1
version 1

Whole song

Interactive

1,106 views 1 this week
1 commentread comment
1 2 3 4 5
1 last vote to show rating
add to favorites
×
Save as Personal and add changes to this tab that will be seen only by you. Learn more ›
×
You can save this tab as Personal to edit and correct it or add notes. All changes will be seen only by you. Learn more »
launch autoscroll
font size
0
reset
how to read this tab
guitar tuner
edit
Autoscroll
slow
fast
+/-
esc
set tempo
stop
Author
An Undesired Reunion
Still Remains
The Serpent (2007)
Hey world this is my interpretation of Still Remain's song "An Undesired Reunion", minus the
solo. (any help there would be much appreciated).
There are a lot of parts on this tab that are mainly things I play to cover up where my 
band is lacking a keyboard, so don't start telling me how parts are different from the actual song.


if anyone can tab the solo, especially with both parts harmonized, PLEASE email it to me at
cjmeserole@yahoo.com.

tuning: (low to high) dadgad
alright, the tuning is a little weird, but I got that directly from Jordan Whelan, the guitarist
for Still Remains, so it's right.  Just tune your low E string down to a D, tune your B string
down to an A, and tune your high E string down to a D.

(Intro)
Gtr. 1
d---0----0-----0-----0-----0---0--:
a-5--5-7---7-8---8-3---3-1---0----:
G---------------------------------:
D---------------------------------:
A---------------------------------:
D---------------------------------:

d---0----0-----0-----0-----0---0--:
a-5--5-7---7-8---8-8---8-8---8----:
G---------------------------------:
D---------------------------------:
A---------------------------------:
D---------------------------------:


d---0----0-----0-----0-----0---0--:
a-5--5-7---7-8---8-3---3-1---0----:
G---------------------------------:
D---------------------------------:
A---------------------------------:
D---------------------------------:

Gtr. 2 (at 0:06)
d--------------------------------------:
a--------------------------------------:
G---7~---------------------------------:
D---7~---------------------------------:
A---5~-----0---------------------------:
D----------0---------------------------:
           .

Gtr. 1
d---0----0------0------0---0---0--:
a-5--5-12--12-10--10-17--15--15---:
G---------------------------------:
D---------------------------------:
A---------------------------------:
D---------------------------------:

Gtr. 2

d--------------------------------------:
a--------------------------------------:
G--------------------------------------:
D--8--------5-------10-----------------:
A--8--x16---5--x12--10-x4--------------:
D--8--------5-------10-----------------:

)this part is just me playing to cover where the keyboard is, but it fits and if you watch
the acoustic version of this, he does play this behind the chords:)
Gtr. 1
d--------------------------------------:
a--------------------------------------:
G--7-7-7-9-9-9-10----------------------:
D--x-x-x-x-x-x-x--x8-------------------:  x2
A--5-5-5-7-7-7-8-----------------------:
D--------------------------------------:

Gtr. 2 (palm muted)
d-----------------------------:
a-----------------------------:
G-----------------------------:
D-----------------------------:   x2
A-0---00----0----00-----------:
D-0---00----0----00-----------:

(during the above pm part, Gtr. 1 plays the first part of the intro again)

Gtr. 2
d--------------------------------------:
a--------------------------------------:
G--------------------------------------:
D--10-8------5-------10----------------:
A--10-8-x16--5--x12--10--x4------------:
D--10-8------5-------10----------------:

Gtr. 2
d--------------------------------------:
a--------------------------------------:
G--7-7-7-9-9-9-10----------------------:
D--x-x-x-x-x-x-x--x8-------------------:  x2
A--5-5-5-7-7-7-8-----------------------:
D--------------------------------------:

end on:
d---------:
a---------:
G-7~------:
D-7~------:
A-5~------:
D---------:


Verse:

The first part of the verse is all piano, but I usually cover it up playing with these chords
(change with the piano chords' progression):

d-----------------------------------------:
a-----------------------------------------:
G--7--5--3--2-----------------------------:
D--7--5--3--2--0--------------------------:
A--5--3--1--0--0--------------------------:
D--------------0--------------------------:

Then the guitars come back in

Gtr. 2  (0:45)
d---------------------------------:
a---------------------------------:
G---------------------------------:
D---------------------------------:
A---------------------------------:
D--7h8-7--------------------------:

Gtr 2 plays palm muted chords, while Gtr 1 plays this:

d-12~-------------15-14-12-10-10h12p10--19~**---:
a-----12~-13~*----------------------------------:
G-----------------------------------------------:
D-----------------------------------------------:
A-----------------------------------------------:
D-----------------------------------------------:
*this note IS NOT right, but it sounds good there
**do bends etc to mess with this note, it's hard to figure out what he plays here

Chorus: (both guitars)
d--------------------------------------:
a--------------------------------------:
G--------------------------------------:
D--8--------5-------10-----------------:
A--8--x16---5--x12--10-x4--------------:
D--8--------5-------10-----------------:

d-----------------------------------------------------------:
a-----------------------------------------------------------:
G--101010-999--121212--101010-99/1010-101010-999--5/7-------:
D--x-x-x--xxx--x-x-x---x-x-x--xx-x-x--x-x-x--xxx--x/x-------:
A--8-8-8--777--101010--8-8-8--77/8-8--8-8-8--777--3/5-------:
D-----------------------------------------------------------:

then repeat the first line of the chorus.

Verse 2:
same as verse one, except if you play my version of the first half instead of the piano,
I like to play the chords clean the first time, then distorted the second time.
Othe than that, the verses are the same.

Chorus:
same again

Buildup to Solo:
Gtr. 1
d---0----0-----0-----0-----0---0--:
a-5--5-7---7-8---8-3---3-1---0----:
G---------------------------------:
D---------------------------------:
A---------------------------------:
D---------------------------------:

d---0----0-----0-----0-----0---0--:
a-5--5-7---7-8---8-8---8-8---8----:
G---------------------------------:
D---------------------------------:
A---------------------------------:
D---------------------------------:

d---0-----0------0------0-----0---0---0---:
a-8--8-10---10-12--12-7---7-5---5---3-----:
G-----------------------------------------:
D-----------------------------------------:
A-----------------------------------------:
D-----------------------------------------:

d---0-----0------0---:
a-8--8-17---17-15----:
G--------------------:
D--------------------:
A--------------------:
D--------------------:

Then it's the solo, which, as I mentioned, I do not have yet. It's both guitars harmonized
so there is no background for me to figure out either.

After the solo, it goes back to the chorus again with a different interlude between vocal
phrases:

d--------------------------------------:
a--------------------------------------:
G--------------------------------------:
D--8--------5-------10-----------------:
A--8--x16---5--x12--10-x4--------------:
D--8--------5-------10-----------------:

Gtr. 1

Gtr. 1
d---0----0-----0-----0-----0---0--:
a-5--5-7---7-8---8-3---3-1---0----:
G---------------------------------:
D---------------------------------:
A---------------------------------:
D---------------------------------:

Gtr. 1
d---0----0------0------0---0---0--:
a-5--5-12--12-10--10-17--15--15---:
G---------------------------------:
D---------------------------------:
A---------------------------------:
D---------------------------------:

Gtr. 2 (palm muted)
d-----------------------------:
a-----------------------------:
G-----------------------------:
D-----------------------------:   x2
A-0---00----0----00-----------:
D-0---00----0----00-----------:

Both guitars again:
d--------------------------------------:
a--------------------------------------:
G--------------------------------------:
D--10-8------5-------10----------------:
A--10-8-x16--5--x12--10--x4------------:
D--10-8------5-------10----------------:

d-----------------------------------------------------------:
a-----------------------------------------------------------:
G--101010-999--121212--101010-99/1010-101010-999--5/7-------:
D--x-x-x--xxx--x-x-x---x-x-x--xx-x-x--x-x-x--xxx--x/x-------:
A--8-8-8--777--101010--8-8-8--77/8-8--8-8-8--777--3/5-------:
D-----------------------------------------------------------:

Gtr. 1 ends on:
d---------:
a---------:
G-7~------:
D-x-------:
A-5~------:
D---------:

and Gtr. 2 ends with:

 (palm muted)
d-----------------------------:
a-----------------------------:
G-----------------------------:
D-----------------------------:   x2
A-0---00----0----00-----------:
D-0---00----0----00-----------:

and that's the song.  comments, corrections, additions, subtractions, anything you wanna say,
please comment!

            
            
Suggest correction
Creating personal tab
Creating personal tab
You can edit any tab online and save it as your Personal.

You can edit, replace or remove any tab part or add personal notes – all changes will be seen only by you.

Personal tabs can be accessed anytime from any device, even offline.
Learn more »
Give kudos to tab author, rate the tab!
1 2 3 4 5
comments
print report bad tab
1 comment total.
0 reply
ForeignInvestor 31 Feb 27, 2010 12:31 PM

Cheers man. This is great stuff. Love the song!

guest
You may want to rate the tab now too:
select rating
Wanna post a correction for this tab? Suggest correction