Oops, an error
Loading. Please wait.

Avalanche tab

version 1
version 1

Whole song

Interactive

2,890 views 1 this week
2 commentsread comments
1 2 3 4 5
x 3
add to favorites
×
Save as Personal and add changes to this tab that will be seen only by you. Learn more ›
×
You can save this tab as Personal to edit and correct it or add notes. All changes will be seen only by you. Learn more »
launch autoscroll
font size
0
reset
how to read this tab
guitar tuner
edit
Autoscroll
slow
fast
+/-
esc
set tempo
stop
INTRO:

( * means tremolo picking)
e|--------------------------------------------------------------------|
B|--------------------------------------------------------------------|
G|--------------------------------------------------------------------|
D|-----------------------------------------------5h7-7----------------|
A|-8\-0--0000--0000--0000000--0-00000--0000--000-5h7-7----------------|
D|----0--0000--0000--0000000--0-00000--0000--000-5h7-7----------------|
p.m.  .  ....  ....  .......  . .....  ....  ...

e|--------------------------------------------------------------------|
B|--------------------------------------------------------------------|
G|--------------------------------------------------------------------|
D|-----------------------------------------------5h8-8----------------|
A|----0--0000--0000--0000000--0-00000--0000--000-5h8-8----------------|
D|----0--0000--0000--0000000--0-00000--0000--000-5h8-8----------------|
p.m.  .  ....  ....  .......  . .....  ....  ...

Guitar one
e|--------------------------------------------------------------------|
B|--------------------------------------------------------------------|
G|--------------------------------------------------------------------|
D|-----------------------------------------------7h10-10--------------|
A|----0--0000--0000--0000000--0-00000--0000--000-7h10-10--------------|
D|----0--0000--0000--0000000--0-00000--0000--000-7h10-10--------------|
p.m.  .  ....  ....  .......  . .....  ....  ...

Guitar two
e|-----------------------------------------------------------------------|
B|-----------------------------------------------------------------------|
G|-----------------------------------------------------------------------|
D|-----------------------------------------------------7h10-10-----------|
A|----0--8-8-7-5---0000--3-5-7-5-3-5-8-8-7-5-0000--000-7h10-10-----------|
D|----0------------0000----------------------0000--000-7h10-10-----------|
p.m.  .  * * * *   ....  * * * * * * * * * * ....  ...

guitar one
e|--------------------------------------------------------------------|
B|--------------------------------------------------------------------|
G|--------------------------------------------------------------------|
D|-----------------------------------------------10h12-12-------------|
A|----0--0000--0000--0000000--0-00000--0000--000-10h12-12-------------|
D|----0--0000--0000--0000000--0-00000--0000--000-10h12-12-------------|
p.m.  .  ....  ....  .......  . .....  ....  ...


guitar two
e|-----------------------------------------------------------------------|
B|-----------------------------------------------------------------------|
G|-----------------------------------------------------------------------|
D|-----------------------------------------------------10h12-12----------|
A|----0--8-8-7-5---0000--3-5-7-5-3-5-8-8-7-5-0000--000-10h12-12----------|
D|----0------------0000----------------------0000--000-10h12-12----------|
p.m.  .  * * * *   ....  * * * * * * * * * * ....  ...

INTERLUDE:
e|--------------------------------------------------------------------|
B|--------------------------------------------------------------------|
G|--------------------------------------------------------------------|
D|--7--7-7--7-7-7--8--8-8--8-8-8--7--7-7--7-7-7-----------------------|
A|--5--5-5--5-5-5--5--5-5--5-5-5--5--5-5--5-5-5\\Pickscrape\\---------|
D|---------------------------------------------\\Pickscrape\\---------|

VERSE: Twice
e|----------------------------------------------------------------------|
B|----------------------------------------------------------------------|
G|----------------------------------------------------------------------|
D|----------------------------------------------------------------------|
A|-0--0-0--0-0-0--0--0-0--0-0-0--0--0-0--0-0-0--0--0-0--0-0-0-----------|
D|-0--0-0--0-0-0--0--0-0--0-0-0--0--0-0--0-0-0--0--0-0--0-0-0-----------|

e|---------------------------------------------------------------------|
B|---------------------------------------------------------------------|
G|---------------------------------------------------------------------|
D|-5--5-5--5-5-5--5--5-5--5-5-5--3--3-3--3-3-3-------------------------|
A|-3--3-3--3-3-3--3--3-3--3-3-3--1--1-1--1-1-1--/7--7--7--7------------|
D|---------------------------------------------------------------------|

CHORUS:
e|---------------------------------------------------------------------------|
B|---------------------------------------------------------------------------|
G|-555555555577881010-7778888810101088888-55577788777777775555555577777777---|
D|-xxxxxxxxxxxxxxx-x--xxxxxxxxx-x-x-xxxxx-xxxxxxxxxxxxxxxxxxxxxxxxxxxxxxxx---|
A|-333333333355668-8--555666668-8-8-66666-33355566555555553333333355555555---|
D|---------------------------------------------------------------------------|

e|--------------------------------------|
B|-888888888/9999\8886666666688888888---|
G|-xxxxxxxxx/xxxx\xxxxxxxxxxxxxxxxxxx---|
D|-555555555/6666\5553333333355555555---|
A|--------------------------------------|
D|--------------------------------------|

e|---------------------------------------------------------|
B|---------------------------------------------------------|
G|---------------------------------------------------------|
D|----------------------------6--6--6-6-6--8--8-8--8-8-8---|
A|-000--0000--0000--00000000--6--6--6-6-6--8--8-8--8-8-8---|
D|-000--0000--0000--00000000--6--6--6-6-6--8--8-8--8-8-8---|
pm....  ....  ....  ........


VERSE: Twice
e|----------------------------------------------------------------------|
B|----------------------------------------------------------------------|
G|----------------------------------------------------------------------|
D|----------------------------------------------------------------------|
A|-0--0-0--0-0-0--0--0-0--0-0-0--0--0-0--0-0-0--0--0-0--0-0-0-----------|
D|-0--0-0--0-0-0--0--0-0--0-0-0--0--0-0--0-0-0--0--0-0--0-0-0-----------|

e|---------------------------------------------------------------------|
B|---------------------------------------------------------------------|
G|---------------------------------------------------------------------|
D|-5--5-5--5-5-5--5--5-5--5-5-5--3--3-3--3-3-3-------------------------|
A|-3--3-3--3-3-3--3--3-3--3-3-3--1--1-1--1-1-1--/7--7--7--7------------|
D|---------------------------------------------------------------------|

CHORUS:
e|---------------------------------------------------------------------------|
B|---------------------------------------------------------------------------|
G|-555555555577881010-7778888810101088888-55577788777777775555555577777777---|
D|-xxxxxxxxxxxxxxx-x--xxxxxxxxx-x-x-xxxxx-xxxxxxxxxxxxxxxxxxxxxxxxxxxxxxxx---|
A|-333333333355668-8--555666668-8-8-66666-33355566555555553333333355555555---|
D|---------------------------------------------------------------------------|

e|--------------------------------------|
B|-888888888/9999\8886666666688888888---|
G|-xxxxxxxxx/xxxx\xxxxxxxxxxxxxxxxxxx---|
D|-555555555/6666\5553333333355555555---|
A|--------------------------------------|
D|--------------------------------------|

e|---------------------------------------------------------|
B|---------------------------------------------------------|
G|---------------------------------------------------------|
D|----------------------------6--6--6-6-6--8--8-8--8-8-8---|
A|-000--0000--0000--00000000--6--6--6-6-6--8--8-8--8-8-8---|
D|-000--0000--0000--00000000--6--6--6-6-6--8--8-8--8-8-8---|
pm....  ....  ....  ........

e|--------------------------------------------------------------------|
B|--------------------------------------------------------------------|
G|--------------------------------------------------------------------|
D|-----------------------------------------------5h7-7----------------|
A|-8\-0--0000--0000--0000000--0-00000--0000--000-5h7-7----------------|
D|----0--0000--0000--0000000--0-00000--0000--000-5h7-7----------------|
p.m.  .  ....  ....  .......  . .....  ....  ...

e|--------------------------------------------------------------------|
B|--------------------------------------------------------------------|
G|--------------------------------------------------------------------|
D|-----------------------------------------------5h8-8----------------|
A|----0--0000--0000--0000000--0-00000--0000--000-5h8-8----------------|
D|----0--0000--0000--0000000--0-00000--0000--000-5h8-8----------------|
p.m.  .  ....  ....  .......  . .....  ....  ...

Guitar one
e|--------------------------------------------------------------------|
B|--------------------------------------------------------------------|
G|--------------------------------------------------------------------|
D|-----------------------------------------------7h10-10--------------|
A|----0--0000--0000--0000000--0-00000--0000--000-7h10-10--------------|
D|----0--0000--0000--0000000--0-00000--0000--000-7h10-10--------------|
p.m.  .  ....  ....  .......  . .....  ....  ...

Guitar two
e|-----------------------------------------------------------------------|
B|-----------------------------------------------------------------------|
G|-----------------------------------------------------------------------|
D|-----------------------------------------------------7h10-10-----------|
A|----0--8-8-7-5---0000--3-5-7-5-3-5-8-8-7-5-0000--000-7h10-10-----------|
D|----0------------0000----------------------0000--000-7h10-10-----------|
p.m.  .  * * * *   ....  * * * * * * * * * * ....  ...

guitar one
e|--------------------------------------------------------------------|
B|--------------------------------------------------------------------|
G|--------------------------------------------------------------------|
D|-----------------------------------------------10h12-12-------------|
A|----0--0000--0000--0000000--0-00000--0000--000-10h12-12-------------|
D|----0--0000--0000--0000000--0-00000--0000--000-10h12-12-------------|
p.m.  .  ....  ....  .......  . .....  ....  ...


guitar two
e|-----------------------------------------------------------------------|
B|-----------------------------------------------------------------------|
G|-----------------------------------------------------------------------|
D|-----------------------------------------------------10h12-12----------|
A|----0--8-8-7-5---0000--3-5-7-5-3-5-8-8-7-5-0000--000-10h12-12----------|
D|----0------------0000----------------------0000--000-10h12-12----------|
p.m.  .  * * * *   ....  * * * * * * * * * * ....  ...


CHORUS:
e|---------------------------------------------------------------------------|
B|---------------------------------------------------------------------------|
G|-555555555577881010-7778888810101088888-55577788777777775555555577777777---|
D|-xxxxxxxxxxxxxxx-x--xxxxxxxxx-x-x-xxxxx-xxxxxxxxxxxxxxxxxxxxxxxxxxxxxxxx---|
A|-333333333355668-8--555666668-8-8-66666-33355566555555553333333355555555---|
D|---------------------------------------------------------------------------|

e|--------------------------------------|
B|-888888888/9999\8886666666688888888---|
G|-xxxxxxxxx/xxxx\xxxxxxxxxxxxxxxxxxx---|
D|-555555555/6666\5553333333355555555---|
A|--------------------------------------|
D|--------------------------------------|

e|---------------------------------------------------------|
B|---------------------------------------------------------|
G|---------------------------------------------------------|
D|----------------------------6--6--6-6-6--8--8-8--8-8-8---|
A|-000--0000--0000--00000000--6--6--6-6-6--8--8-8--8-8-8---|
D|-000--0000--0000--00000000--6--6--6-6-6--8--8-8--8-8-8---|
pm....  ....  ....  ........

OUTRO PART ONE:
e|----------------------------------------------------------------------|
B|----------------------------------------------------8-----------------|
G|-------------8-----7-------------------7------------------10-----8----|
D|------10-----------------10-----10-----------10-----------------------|
A|----------------------------------------------------------------------|
D|--0-0----0-0---0-0---0-0----0-0----0-0---0-0----0-0---0-0----0-0------|

e|----------------------------------------------------------------------|
B|----------------------------------------------------------------------|
G|----------------------------------------------------------------------|
D|------------------------------------8-----8-----8---10-----10-----10--|
A|-----11-----10-----6-----5-----5--6-----6---6-6---8------8----8-8-----|
D|-0-0----0-0----0-0---0-0---0-0----------------------------------------|

e|----------------------------------------------------------------------|
B|-------------------11-----8------------------------8------------------|
G|------7-------------------------10-----7-----------------10-----8-----|
D|------------10-------------------------------8------------------------|
A|----------------------------------------------------------------------|
D|--0-0---0-0----0-0----0-0---0-0----0-0---0-0---0-0---0-0----0-0-------|

e|----------------------------------------------------------------------|
B|----------------------------------------------------------------------|
G|----------------------------------------------------------------------|
D|------------------------------------8-----8-----8---10-----10-----10--|
A|-----11-----10-----6-----5-----5--6-----6---6-6---8------8----8-8-----|
D|-0-0----0-0----0-0---0-0---0-0----------------------------------------|

OUTRO PART TWO: Plays several times and fades out
Guitar One
e|----------------------------------------------------------------------|
B|----------------------------------------------------------------------|
G|-------10-12-------10-12-------/12-10-------/10-8-------3-5-------3-5-|
D|----------------------------------------------------------------------|
A|----------------------------------------------------------------------|
D|-0-0-0-------0-0-0-------0-0-0--------0-0-0-------0-0-0-----0-0-0-----|

Guitar Two
e|-----------------------------------------------------------------------|
B|-----------------------------------------------------------------------|
G|-----------------------------------------------------------------------|
D|-------12-13-------12-13-------/13-12-------/12-10-------5-6-------5-6-|
A|-----------------------------------------------------------------------|
D|-0-0-0-------0-0-0-------0-0-0--------0-0-0--------0-0-0-----0-0-0-----|


e|--------------------------------------|
B|--------------------------------------|
G|--------------------------------------|
D|----8-----8-----8---10-----10-----10--|
A|--6-----6---6-6---8------8----8-8-----|
D|--------------------------------------|

OUTRO PART THREE: ACOUSTIC
e|-----------------------------------------------|
B|-----------------------------------------------|
G|-----12-------12-------12-------10------10-----|
D|--13----13-13----13-13----12-12-------12----12-|
A|-----------------------------------------------|
D|-----------------------------------------------|

e|----------------------------------------------|
B|----------------------------------------------|
G|-----10-------10-------10-------8-------8-----|
D|--12----12-12----12-12----10-10------10---10--|
A|----------------------------------------------|
D|----------------------------------------------|

e|----------------------------------------------|
B|----------------------------------------------|
G|----------------------------------------------|
D|----10-------10-------10-------8-------8------|
A|-11----11-11----11-11----10-10------10---10---|
D|----------------------------------------------|

e|------------------------------------------------|
B|------------------------------------------------|
G|-----12-------12----12--------8-------8----8----|
D|--13----13-13----13----13--10---10-10---10---10-|
A|------------------------------------------------|
D|------------------------------------------------|

            
            
Suggest correction
Creating personal tab
Creating personal tab
You can edit any tab online and save it as your Personal.

You can edit, replace or remove any tab part or add personal notes – all changes will be seen only by you.

Personal tabs can be accessed anytime from any device, even offline.
Learn more »
Give kudos to tab author, rate the tab!
1 2 3 4 5
comments
print report bad tab
2 comments total.
0 reply
6sic6_blank 20 Jul 15, 2008 09:06 PM

Looks pretty solid to me, though there are only a few parts that sound little off, but nothing any guitarist can't figure out on his own. Well done!

0 reply
jimbolimbo22 72 Nov 25, 2009 11:37 AM

good... but no solo :(

guest
You may want to rate the tab now too:
select rating
Wanna post a correction for this tab? Suggest correction