Oops, an error
Loading. Please wait.

White Walls tab

version 2
version 2

Whole song

Interactive

2,092 views 1 this week
2 commentsread comments
1 2 3 4 5
x 4
add to favorites
×
Save as Personal and add changes to this tab that will be seen only by you. Learn more ›
×
You can save this tab as Personal to edit and correct it or add notes. All changes will be seen only by you. Learn more »
launch autoscroll
font size
0
reset
how to read this tab
guitar tuner
edit
Autoscroll
slow
fast
+/-
esc
set tempo
stop
D  :----------------|------------------|--------------|----------------|
A  :----------------|8-10-----10-------|10---8--------|----------------|
F  :----------------|------------------|---------10---|9-------9---9---|
C  :----------------|------------------|--------------|----------------|
G  :----------------|------------------|--------------|----------------|
C  :----------------|------------------|--------------|----------------|

D  :-----------------|-------------------|-----------------|
A  :-------------8---|-------------------|-----------------|
F  :----9---10-------|-------------------|----10---9---7---|
C  :-----------------|10-------10---10---|-----------------|
G  :-----------------|-------------------|-----------------|
C  :-----------------|-------------------|-----------------|

D  :-----------------|-----------------|------------------|
A  :-----------------|-----------------|8-10---------10---|
F  :--------10---9---|7----------------|------------------|
C  :7----------------|----10---8---7---|------------------|
G  :-----------------|-----------------|------------------|
C  :-----------------|-----------------|------------------|

D  :------------------|----------------|-----------------|----------------|
A  :----10---8--------|----------------|-------------8---|----------------|
F  :-------------10---|9-------9---9---|----9---10-------|0-------0---9---|
C  :------------------|----------------|-----------------|----------------|
G  :------------------|----------------|-----------------|----------------|
C  :------------------|----------------|-----------------|----------------|

D  :------------------|------------------|------------------|
A  :------------------|------------------|------------------|
F  :0---10---0---12---|0---14---0---12---|0---10---9--------|
C  :------------------|------------------|-------------10---|
G  :------------------|------------------|------------------|
C  :------------------|------------------|------------------|

D  :------------------|------------------|----------------|
A  :8-10---------10---|----10---8--------|----------------|
F  :------------------|-------------10---|9-------9---9---|
C  :------------------|------------------|----------------|
G  :------------------|------------------|----------------|
C  :------------------|------------------|----------------|

D  :-----------------|-------------------|-----------------|
A  :-------------8---|-------------------|-----------------|
F  :----9---10-------|-------------------|----10---9---7---|
C  :-----------------|10-------10---10---|-----------------|
G  :-----------------|-------------------|-----------------|
C  :-----------------|-------------------|-----------------|

D  :-----------------|-----------------|------------------|
A  :-----------------|-----------------|8-10---------10---|
F  :--------10---9---|7----------------|------------------|
C  :7----------------|----10---8---7---|------------------|
G  :-----------------|-----------------|------------------|
C  :-----------------|-----------------|------------------|

D  :------------------|----------------|-----------------|----------------|
A  :----10---8--------|----------------|-------------8---|----------------|
F  :-------------10---|9-------9---9---|----9---10-------|0-------0---9---|
C  :------------------|----------------|-----------------|----------------|
G  :------------------|----------------|-----------------|----------------|
C  :------------------|----------------|-----------------|----------------|

D  :------------------|------------------|------------------|
A  :------------------|------------------|------------------|
F  :0---10---0---12---|0---14---0---12---|0---10---9--------|
C  :------------------|------------------|-------------10---|
G  :------------------|------------------|------------------|
C  :------------------|------------------|------------------|

D  :-------------------|--------------------|--------------------|
A  :-------------------|--------------------|--------------------|
F  :10-------10---10---|10---10---10---10---|10---10---10---10---|
C  :-------------------|--------------------|--------------------|
G  :-8--------8----8---|-8----8----8----8---|-8----8----8----8---|
C  :-------------------|--------------------|--------------------|

D  :--------------------|-------------------|--------------------|
A  :--------------------|-------------------|--------------------|
F  :10---10---10---10---|14-------14---14---|14---14---14---14---|
C  :--------------------|-------------------|--------------------|
G  :-8----8----8----8---|12-------12---12---|12---12---12---12---|
C  :--------------------|-------------------|--------------------|

D  :--------------------|--------------------|-------------------|
A  :--------------------|--------------------|-------------------|
F  :14---14---14---14---|14---14---14---14---|15-------15---15---|
C  :--------------------|--------------------|-------------------|
G  :12---12---12---12---|12---12---12---12---|13-------13---13---|
C  :--------------------|--------------------|-------------------|

D  :--------------------|--------------------|--------------------|
A  :--------------------|--------------------|--------------------|
F  :15---15---15---15---|15---15---15---15---|15---15---15---15---|
C  :--------------------|--------------------|--------------------|
G  :13---13---13---13---|13---13---13---13---|13---13---13---13---|
C  :--------------------|--------------------|--------------------|

D  :-------------------|--------------------|-------------------|
A  :-------------------|--------------------|-------------------|
F  :17-------17---17---|17---17---17---17---|10-------10---10---|
C  :-------------------|--------------------|-------------------|
G  :15-------15---15---|15---15---15---15---|-8--------8----8---|
C  :-------------------|--------------------|-------------------|

D  :----------------|-----------------|----------------|----------------|
A  :----------------|-----------------|----------------|----------------|
F  :9-------9---9---|10---------------|----------------|----------------|
C  :----------------|-----------------|----------------|----------------|
G  :7-------7---7---|-8---------------|----------------|----------------|
C  :----------------|---------0-0-0---|0---*---0-0-0---|0---*---0-0-0---|

D  :----------------|-----------------|----------------|----------------|
A  :----------------|-----------------|----------------|----------------|
F  :----------------|10---------------|----------------|----------------|
C  :----------------|-----------------|----------------|----------------|
G  :----------------|-8---------------|----------------|----------------|
C  :0---0---0---0---|---------0-0-0---|0---*---0-0-0---|0---*---0-0-0---|

D  :----------------|-----------------|----------------|----------------|
A  :----------------|-----------------|----------------|----------------|
F  :----------------|15---------------|----------------|----------------|
C  :----------------|-----------------|----------------|----------------|
G  :----------------|13---------------|----------------|----------------|
C  :0---0---0---0---|---------0-0-0---|0---*---0-0-0---|0---*---0-0-0---|

D  :----------------|-------------------|--------------------|
A  :----------------|-------------------|--------------------|
F  :----------------|-------------------|--------------------|
C  :----------------|10-------10---10---|10---10---10---10---|
G  :----------------|10-------10---10---|10---10---10---10---|
C  :0---0---0---0---|10-------10---10---|10---10---10---10---|

D  :-------------------|----------------|----------------|----------------|
A  :-------------------|----------------|----------------|----------------|
F  :10-------10---10---|9-------9---9---|----------------|----------------|
C  :-------------------|----------------|----------------|----------------|
G  :-8--------8----8---|7-------7---7---|5-----------8---|----8-------8---|
C  :-------------------|----------------|5-------5-------|5-------5-------|

D  :----------------|-----------------|-----------------|------------------|
A  :----------------|-----------------|-----------------|------------------|
F  :----------------|-----------------|-----------------|------------------|
C  :----------------|-----------------|-----------------|------------------|
G  :----8-------8---|----7---8---10---|8-----------10---|----10-------10---|
C  :5-------5-------|5----------------|8-------8--------|8--------8--------|

D  :------------------|-----------------|----------------|----------------|
A  :------------------|-----------------|----------------|----------------|
F  :------------------|-----------------|----------------|----------------|
C  :------------------|---------7---8---|0---------------|----------------|
G  :----10-------10---|----10-----------|0-----------8---|----8-------8---|
C  :8--------8--------|8----------------|0-------0-------|0-------0-------|

D  :----------------|-----------------|----------------|----------------|
A  :----------------|-----------------|----------------|----------------|
F  :----------------|-----------------|----------------|----------------|
C  :----------------|-----------------|3---------------|----------------|
G  :----8-------8---|----7---8---10---|3-----------7---|----7-------7---|
C  :0-------0-------|0----------------|3-------3-------|3-------3-------|

D  :----------------|-----------------|----------------|----------------|
A  :----------------|-----------------|----------------|----------------|
F  :----------------|-----------------|----------------|----------------|
C  :----------------|----8---7--------|----------------|----------------|
G  :----7-------7---|------------10---|5-----------8---|----8-------8---|
C  :3-------3-------|3----------------|5-------5-------|5-------5-------|

D  :----------------|-----------------|-----------------|------------------|
A  :----------------|-----------------|-----------------|------------------|
F  :----------------|-----------------|-----------------|------------------|
C  :----------------|-----------------|-----------------|------------------|
G  :----8-------8---|----7---8---10---|8-----------10---|----10-------10---|
C  :5-------5-------|5----------------|8-------8--------|8--------8--------|

D  :------------------|----------------|----------------|----------------|
A  :------------------|----------------|----------------|----------------|
F  :------------------|----------------|----------------|----------------|
C  :------------------|----8---8---8---|0---------------|----7-----------|
G  :----10-------10---|----8---8---8---|0-----------8---|------------8---|
C  :8--------8--------|8---8---8---8---|0-------0-------|0-------0-------|

D  :-----------------|-----------------|----------------|----------------|
A  :-----------------|-----------------|----------------|----------------|
F  :-----------------|-----------------|----------------|----------------|
C  :----10-----------|-----------------|3---------------|----------------|
G  :-------------8---|----7---8---10---|3-----------7---|----7-------8---|
C  :0--------0-------|0----------------|3-------3-------|3-------3-------|

D  :----------------|----------------|----------------|----------------|
A  :----------------|----------------|----------------|----------------|
F  :----------------|----------------|----------------|----------------|
C  :----------------|----3---3---3---|0---------------|----------------|
G  :7-------5---3---|----3---3---3---|0-----------0---|----0-------0---|
C  :----------------|----3---3---3---|0-------0-0-0---|0-0-0---0-0-0---|

D  :----------------|----------------|----------------|----------------|
A  :----------------|----------------|----------------|----------------|
F  :----------------|----------------|----------------|----------------|
C  :----------------|----------------|0---------------|----------------|
G  :----0-------0---|----0---5---6---|0-----------0---|----0-------0---|
C  :0-0-0---0-0-0---|0-0-0-----------|0-------0-0-0---|0-0-0---0-0-0---|

D  :----------------|----------------|----------------|----------------|
A  :----------------|----------------|----------------|----------------|
F  :----------------|----------------|----------------|----------------|
C  :----------------|----0-------0---|0---------------|----------------|
G  :----0-------0---|----0-------0---|0-----------0---|----0-------0---|
C  :0-0-0---0-0-0---|0---0---0---0---|0-------0-0-0---|0-0-0---0-0-0---|

D  :----------------|----------------|----------------|----------------|
A  :----------------|----------------|----------------|----------------|
F  :----------------|----------------|----------------|----------------|
C  :----------------|----------------|0---------------|----------------|
G  :----0-------0---|----0---5---6---|0-----------0---|----0-------0---|
C  :0-0-0---0-0-0---|0-0-0-----------|0-------0-0-0---|0-0-0---0-0-0---|

D  :----------------|----------------|----------------|----------------|
A  :----------------|----------------|----------------|----------------|
F  :----------------|----------------|----------------|----------------|
C  :----------------|----0-------0---|0---------------|----------------|
G  :----0-------0---|----0-------0---|0-----------0---|----0-------0---|
C  :0-0-0---0-0-0---|0---0---0---0---|0-------0-0-0---|0-0-0---0-0-0---|

D  :----------------|----------------|----------------|----------------|
A  :----------------|----------------|----------------|----------------|
F  :----------------|----------------|----------------|----------------|
C  :----------------|--------3---5---|0---------------|----0-----------|
G  :----0-------0---|----0-----------|0---------------|----0-----------|
C  :0-0-0---0-0-0---|0-0-0-----------|0---------------|----0-----------|

D  :----------------|----------------|----------------|----------------|
A  :----------------|----------------|----------------|----------------|
F  :----------------|----------------|----------------|----------------|
C  :----------------|----------------|0---------------|----0-----------|
G  :----------------|----------------|0---------------|----0-----------|
C  :----------------|----0---1-------|0---------------|----0-----------|

D  :----------------|----------------|----------------|----------------|
A  :----------------|----------------|----------------|----------------|
F  :----------------|----------------|----------------|----------------|
C  :----------------|----------------|0---------------|----0-----------|
G  :----------------|--------5---6---|0---------------|----0-----------|
C  :----------------|----0-----------|0---------------|----0-----------|

D  :----------------|----------------|----------------|----------------|
A  :----------------|----------------|----------------|----------------|
F  :----------------|----------------|----------------|----------------|
C  :----------------|----------------|0---------------|----0-----------|
G  :----------------|----------------|0---------------|----0-----------|
C  :----------------|----0---1-------|0---------------|----0-----------|

D  :----------------|----------------|-----------------|------------------|
A  :----------------|----------------|-----------------|------------------|
F  :----------------|----------------|-----------------|------------------|
C  :----------------|--------3---5---|0----------------|------------------|
G  :----------------|----------------|0-----------12---|----8-12-8--------|
C  :----------------|----0-----------|0-------0--------|0------------12---|

D  :-------------------|---------------------|-----------------|
A  :-------------------|---------------------|-----------------|
F  :-------------------|---------------------|-----------------|
C  :-------------------|---------------------|0----------------|
G  :---------10--------|8--------7---8-------|0-------12-------|
C  :10------------10---|----10---------------|0------------0---|

D  :-------------------|------------------|-----------------|
A  :-------------------|------------------|-----------------|
F  :-------------------|------------------|-----------------|
C  :-------------------|------------------|-----------------|
G  :8-12-8-------------|----10--------8---|-----7---8-------|
C  :---------12---10---|---------10-------|10---------------|

D  :-----------------|-------------------|------------------|
A  :-----------------|-------------------|------------------|
F  :-----------------|-------------------|------------------|
C  :8----------------|-------------------|------------------|
G  :8-------12-------|8-12-8-------------|----10--------8---|
C  :8------------8---|---------12---10---|---------10-------|

D  :-----------------|-------------------|------------------|
A  :-----------------|-------------------|------------------|
F  :-----------------|-------------------|------------------|
C  :-----------------|10-----------------|--------------8---|
G  :-----7---8-------|10-------12--------|8-12-8------------|
C  :10---------------|10------------10---|---------12-------|

D  :--------------------|-----------------|-----------------|
A  :--------------------|-----------------|-----------------|
F  :--------------------|-----------------|-----------------|
C  :--------------------|-----------------|0----------------|
G  :-----12--------10---|-----8---7-------|0-------12-------|
C  :12--------12--------|12---------------|0------------0---|

D  :-------------------|------------------|-----------------|
A  :-------------------|------------------|-----------------|
F  :-------------------|------------------|-----------------|
C  :-------------------|------------------|-----------------|
G  :8-12-8-------------|----10--------8---|-----7---8-------|
C  :---------12---10---|---------10-------|10---------------|

D  :-----------------|-------------------|------------------|
A  :-----------------|-------------------|------------------|
F  :-----------------|-------------------|------------------|
C  :0----------------|-------------------|------------------|
G  :0-------12-------|8-12-8-------------|----10--------8---|
C  :0------------0---|---------12---10---|---------10-------|

D  :-----------------|-----------------|-------------------|
A  :-----------------|-----------------|-------------------|
F  :-----------------|-----------------|-------------------|
C  :-----------------|8----------------|-------------------|
G  :-----7---8-------|8-------12-------|8-12-8-------------|
C  :10---------------|8------------8---|---------12---10---|

D  :------------------|-----------------|-------------------|
A  :------------------|-----------------|-------------------|
F  :------------------|-----------------|-------------------|
C  :------------------|-----------------|10-----------------|
G  :----10--------8---|-----7---8-------|10-------12--------|
C  :---------10-------|10---------------|10------------10---|

D  :------------------|--------------------|-----------------|
A  :------------------|--------------------|-----------------|
F  :------------------|--------------------|-----------------|
C  :--------------8---|--------------------|-----------------|
G  :8-12-8------------|-----12--------10---|-----8---7-------|
C  :---------12-------|12--------12--------|12---------------|

D  :----------------|----------------|----------------|-----------------|
A  :----------------|----------------|----------------|-----------------|
F  :----------------|----------------|----------------|-----------------|
C  :----------------|----------------|----------------|-----------------|
G  :5-----------8---|----8-------8---|----8-------8---|----7---8---10---|
C  :5-------5-------|5-------5-------|5-------5-------|5----------------|

D  :-----------------|------------------|------------------|
A  :-----------------|------------------|------------------|
F  :-----------------|------------------|------------------|
C  :-----------------|------------------|------------------|
G  :8-----------10---|----10-------10---|----10-------10---|
C  :8-------8--------|8--------8--------|8--------8--------|

D  :-----------------|----------------|----------------|----------------|
A  :-----------------|----------------|----------------|----------------|
F  :-----------------|----------------|----------------|----------------|
C  :---------7---8---|0---------------|----------------|----------------|
G  :----10-----------|0-----------8---|----8-------8---|----8-------8---|
C  :8----------------|0-------0-------|0-------0-------|0-------0-------|

D  :-----------------|----------------|----------------|----------------|
A  :-----------------|----------------|----------------|----------------|
F  :-----------------|----------------|----------------|----------------|
C  :-----------------|3---------------|----------------|----------------|
G  :----7---8---10---|3-----------7---|----7-------7---|----7-------7---|
C  :0----------------|3-------3-------|3-------3-------|3-------3-------|

D  :-----------------|----------------|----------------|----------------|
A  :-----------------|----------------|----------------|----------------|
F  :-----------------|----------------|----------------|----------------|
C  :----8---7--------|----------------|----------------|----------------|
G  :------------10---|5-----------8---|----8-------8---|----8-------8---|
C  :3----------------|5-------5-------|5-------5-------|5-------5-------|

D  :-----------------|-----------------|------------------|
A  :-----------------|-----------------|------------------|
F  :-----------------|-----------------|------------------|
C  :-----------------|-----------------|------------------|
G  :----7---8---10---|8-----------10---|----10-------10---|
C  :5----------------|8-------8--------|8--------8--------|

D  :------------------|----------------|----------------|----------------|
A  :------------------|----------------|----------------|----------------|
F  :------------------|----------------|----------------|----------------|
C  :------------------|----8---8---8---|0---------------|----7-----------|
G  :----10-------10---|----8---8---8---|0-----------8---|------------8---|
C  :8--------8--------|8---8---8---8---|0-------0-------|0-------0-------|

D  :-----------------|-----------------|----------------|----------------|
A  :-----------------|-----------------|----------------|----------------|
F  :-----------------|-----------------|----------------|----------------|
C  :----10-----------|-----------------|3---------------|----------------|
G  :-------------8---|----7---8---10---|3-----------7---|----7-------8---|
C  :0--------0-------|0----------------|3-------3-------|3-------3-------|

D  :----------------|----------------|----------------|----------------|
A  :----------------|----------------|----------------|----------------|
F  :----------------|----------------|----------------|----------------|
C  :----------------|----------------|0---0---0---0---|----------------|
G  :7-------5---7---|0---7---0---8---|0---0---0---0---|----------------|
C  :----------------|----------------|0---0---0---0---|----*-----------|

D  :----------------|----------------|----------------|----------------|
A  :----------------|----------------|----------------|----------------|
F  :----------------|----------------|----------------|----------------|
C  :----------------|----------------|0---0---0---0---|----------------|
G  :----------------|----0-------0---|0---0---0---0---|----------------|
C  :----------------|----0-------0---|0---0---0---0---|----*-----------|

D  :----------------|----------------|----------------|----------------|
A  :----------------|----------------|----------------|----------------|
F  :----------------|----------------|----------------|----------------|
C  :----------------|----------------|8---8---8---8---|----------------|
G  :----------------|----------------|8---8---8---8---|----------------|
C  :----------------|----------------|8---8---8---8---|----*-----------|

D  :----------------|----------------|----------------|----------------|
A  :----------------|----------------|----------------|----------------|
F  :----------------|----------------|----------------|----------------|
C  :----------------|----8-------8---|5---5---5---5---|5---5---5---5---|
G  :----------------|----8-------8---|5---5---5---5---|5---5---5---5---|
C  :----------------|----8-------8---|5---5---5---5---|5---5---5---5---|

D  :----------------|----------------|----------------|----------------|
A  :----------------|----------------|----------------|----------------|
F  :----------------|----7---7---7---|----------------|----------------|
C  :5---5---5---5---|----------------|0---0---0---0---|----------------|
G  :5---5---5---5---|----------------|0---0---0---0---|----------------|
C  :5---5---5---5---|5---------------|0---0---0---0---|----*-----------|

D  :----------------|----------------|----------------|----------------|
A  :----------------|----------------|----------------|----------------|
F  :----------------|----------------|----------------|----------------|
C  :----------------|----------------|0---0---0---0---|----------------|
G  :----0-------0---|----0-------0---|0---0---0---0---|----------------|
C  :----0---*---0---|*---0---*---0---|0---0---0---0---|----*-----------|

D  :----------------|----------------|----------------|----------------|
A  :----------------|----------------|----------------|----------------|
F  :----------------|----------------|----------------|----------------|
C  :----------------|----------------|8---8---8---8---|----------------|
G  :----0-------0---|----0-------0---|8---8---8---8---|----------------|
C  :----0---*---0---|*---0---*---0---|8---8---8---8---|----*-----------|

D  :----------------|----------------|----------------|----------------|
A  :----------------|----------------|----------------|----------------|
F  :----------------|----------------|----------------|----------------|
C  :----------------|----------------|5---5---5---5---|5---5---5---5---|
G  :----8-------8---|----8-------8---|5---5---5---5---|5---5---5---5---|
C  :----8---*---8---|*---8---*---8---|5---5---5---5---|5---5---5---5---|

D  :----------------|----------------|----------------|----------------|
A  :----------------|----5---5---5---|----------------|----------------|
F  :----------------|----5---5---5---|----------------|----------------|
C  :5---5---5---5---|----------------|0---0---0---0---|----------------|
G  :5---5---5---5---|----------------|0---0---0---0---|----------------|
C  :5---5---5---5---|5---------------|0---0---0---0---|0---0---0---0---|

D  :----------------|----------------|----------------|----------------|
A  :----------------|----------------|----------------|----------------|
F  :----------------|----------------|----------------|----------------|
C  :----------------|----------------|0---0---0---0---|----------------|
G  :----0-------0---|----0-------0---|0---0---0---0---|----------------|
C  :0---0---0---0---|0---0---0---0---|0---0---0---0---|0---0---0---0---|

D  :----------------|----------------|----------------|----------------|
A  :----------------|----------------|----------------|----------------|
F  :----------------|----------------|----------------|----------------|
C  :----------------|----------------|8---8---8---8---|----------------|
G  :----0-------0---|----0-------0---|8---8---8---8---|----------------|
C  :0---0---0---0---|0---0---0---0---|8---8---8---8---|8---8---8---8---|

D  :----------------|----------------|----------------|----------------|
A  :----------------|----------------|----------------|----------------|
F  :----------------|----------------|----------------|----------------|
C  :----------------|----------------|5---5---5---5---|5---5---5---5---|
G  :----8-------8---|----8-------8---|5---5---5---5---|5---5---5---5---|
C  :8---8---8---8---|8---8---8---8---|5---5---5---5---|5---5---5---5---|

D  :----------------|----------------|----------------|------------|
A  :----------------|--------5-------|----------------|------------|
F  :----------------|--------5-------|----------------|------------|
C  :5---5---5---5---|5---------------|0---------------|------------|
G  :5---5---5---5---|5---5-----------|0-------0-------|0-----------|
C  :5---5---5---5---|5---5-----------|0-------0---0-0-|0---0---0---|

D  :----------------|----------------|----------------|----------------|
A  :----------------|----------------|----------------|----------------|
F  :----------------|----------------|----------------|----------------|
C  :8---------------|----------------|5---------------|----------------|
G  :8-----------8---|----8-----------|5-----------5---|----5-----------|
C  :8-------8---8---|8-8-8---8---8---|5-------5---5---|5-5-5---5---5---|

D  :----------------|----------------|----------------|----------------|
A  :----------------|----------------|----------------|----------------|
F  :5---------------|----------------|----------------|----------------|
C  :5-----------5---|----5-----------|0---------------|----------------|
G  :3-------3---3---|3-3-3---3---3---|0-------0---0---|----0-----------|
C  :----------------|----------------|0-------0---0---|0-0-0---0---0---|

D  :----------------|----------------|----------------|----------------|
A  :----------------|----------------|----------------|----------------|
F  :5---------------|----5-----------|----------------|----------------|
C  :5-------5---5---|----5---5---5---|5---------------|----------------|
G  :3-------3---3---|3-3-3---3---3---|5-------5---5---|----5-----------|
C  :----------------|----------------|5-------5---5---|5-5-5---5---5---|

D  :----------------|----------------|------------------|------------------|
A  :----------------|----------------|8-10---------10---|----10---8--------|
F  :----------------|----------------|------------------|-------------10---|
C  :8-----------8---|----------------|------------------|------------------|
G  :8-----------8---|----8---8---8---|------------------|------------------|
C  :8-------8---8---|8-8-8---8---8---|------------------|------------------|

D  :----------------|-----------------|-------------------|
A  :----------------|-------------8---|-------------------|
F  :9-------9---9---|----9---10-------|-------------------|
C  :----------------|-----------------|10-------10---10---|
G  :----------------|-----------------|-------------------|
C  :----------------|-----------------|-------------------|

D  :-----------------|-----------------|-----------------|
A  :-----------------|-----------------|-----------------|
F  :----10---9---7---|--------10---9---|7----------------|
C  :-----------------|7----------------|----10---8---7---|
G  :-----------------|-----------------|-----------------|
C  :-----------------|-----------------|-----------------|

D  :------------------|------------------|----------------|
A  :8-10---------10---|----10---8--------|----------------|
F  :------------------|-------------10---|9-------9---9---|
C  :------------------|------------------|----------------|
G  :------------------|------------------|----------------|
C  :------------------|------------------|----------------|

D  :-----------------|----------------|------------------|
A  :-------------8---|----------------|------------------|
F  :----9---10-------|0-------0---9---|0---10---0---12---|
C  :-----------------|----------------|------------------|
G  :-----------------|----------------|------------------|
C  :-----------------|----------------|------------------|

D  :------------------|------------------|----------------|----------------|
A  :------------------|------------------|----------------|----------------|
F  :0---14---0---12---|0---10---9--------|----------------|----------------|
C  :------------------|-------------10---|5---------------|----------------|
G  :------------------|------------------|5-----------8---|----8-------8---|
C  :------------------|------------------|5-------5-------|5-------5-------|

D  :----------------|----------------|----------------|----------------|
A  :----------------|----------------|----------------|----------------|
F  :----------------|----------------|----------------|----------------|
C  :----------------|5---------------|0---------------|----------------|
G  :----7---8-------|--------8-------|0-----------0---|0---------------|
C  :5-----------5---|------------0---|0-------0-0-0---|0---*-----------|

D  :----------------|----------------|----------------|----------------|
A  :----------------|----------------|----------------|----------------|
F  :----------------|----------------|----------------|----------------|
C  :----------------|----------------|0---------------|----------------|
G  :--------0-------|----0---0---0---|0-----------0---|0---------------|
C  :--------0-----0-|0-0-0---0---0---|0-------0-0-0---|0---*-----------|

D  :----------------|----------------|--------------------|
A  :----------------|----------------|--------------------|
F  :----------------|----------------|--------------------|
C  :----------------|------------0---|10------------------|
G  :--------0-------|----0---0---0---|10-------------10---|
C  :--------0-----0-|0-0-0---0---0---|10-------10-10-10---|

D  :-----------------|------------------|---------------------|
A  :-----------------|------------------|---------------------|
F  :-----------------|------------------|---------------------|
C  :-----------------|------------------|---------------------|
G  :10---------------|------------------|------10---10---10---|
C  :10---*-----------|------------10-10-|10-10-10---10---10---|

D  :--------------------|-----------------|------------------|
A  :--------------------|-----------------|------------------|
F  :--------------------|-----------------|------------------|
C  :10------------------|-----------------|------------------|
G  :10-------------10---|10---------------|------------------|
C  :10-------10-10-10---|10---*-----------|------------10-10-|

D  :---------------------|----------------|----------------|
A  :---------------------|----------------|----------------|
F  :---------------------|----------------|----------------|
C  :---------------------|8---------------|----------------|
G  :------10---10---10---|8-----------8---|8---------------|
C  :10-10-10---10---10---|8-------8-8-8---|8---*-----------|

D  :----------------|----------------|----------------|----------------|
A  :----------------|----------------|----------------|----------------|
F  :----------------|----------------|----------------|----------------|
C  :----------------|----------------|8---------------|----------------|
G  :----------------|----8---8---8---|8-----------8---|8---------------|
C  :------------8-8-|8-8-8---8---8---|8-------8-8-8---|8---*-----------|

D  :----------------|----------------|----------------|----------------|
A  :----------------|----------------|----------------|----------------|
F  :----------------|----------------|----------------|----------------|
C  :----------------|----------------|5---------------|----------------|
G  :----------------|----8---8---8---|5-----------5---|5---------------|
C  :------------8-8-|8-8-8---8---8---|5-------5-5-5---|5---*-----------|

D  :----------------|----------------|----------------|----------------|
A  :----------------|----------------|----------------|----------------|
F  :----------------|----------------|----------------|----------------|
C  :----------------|----------------|7---------------|----------------|
G  :--------5-------|----5---5---5---|7-----------7---|7---------------|
C  :--------5-----5-|5-5-5---5---5---|7-------7-7-7---|7---*-----------|

D  :----------------|----------------|-----------------|----------------|
A  :----------------|----------------|-----------------|----------------|
F  :----------------|----------------|10---------------|----------------|
C  :----------------|----------------|-----------------|----------------|
G  :--------7---7---|7---7---7---7---|-8---------------|----------------|
C  :--------7---7---|7---7---7---7---|---------0-0-0---|0---*---0-0-0---|

D  :----------------|----------------|-----------------|----------------|
A  :----------------|----------------|-----------------|----------------|
F  :----------------|----------------|10---------------|----------------|
C  :----------------|----------------|-----------------|----------------|
G  :----------------|----------------|-8---------------|----------------|
C  :0---*---0-0-0---|0---0---0---0---|---------0-0-0---|0---*---0-0-0---|

D  :----------------|----------------|-----------------|----------------|
A  :----------------|----------------|-----------------|----------------|
F  :----------------|----------------|15---------------|----------------|
C  :----------------|----------------|-----------------|----------------|
G  :----------------|----------------|13---------------|----------------|
C  :0---*---0-0-0---|0---0---0---0---|---------0-0-0---|0---*---0-0-0---|

D  :----------------|----------------|-------------------|
A  :----------------|----------------|-------------------|
F  :----------------|----------------|-------------------|
C  :----------------|----------------|10-------10---10---|
G  :----------------|----------------|10-------10---10---|
C  :0---*---0-0-0---|0---0---0---0---|10-------10---10---|

D  :--------------------|--------------------|----------------|
A  :--------------------|--------------------|----------------|
F  :--------------------|10---10---10---10---|9-------9---9---|
C  :10---10---10---10---|--------------------|----------------|
G  :10---10---10---10---|-8----8----8----8---|7-------7---7---|
C  :10---10---10---10---|--------------------|----------------|

D  :-----------------|----------------|----------------|----------------|
A  :-----------------|----------------|----------------|----------------|
F  :10---------------|----------------|----------------|----------------|
C  :-----------------|----------------|----------------|----------------|
G  :-8---------------|----------------|----------------|----------------|
C  :---------0-0-0---|0---*---0-0-0---|0---*---0-0-0---|0---0---0---0---|

D  :-----------------|----------------|----------------|----------------|
A  :-----------------|----------------|----------------|----------------|
F  :10---------------|----------------|----------------|----------------|
C  :-----------------|----------------|----------------|----------------|
G  :-8---------------|----------------|----------------|----------------|
C  :---------0-0-0---|0---*---0-0-0---|0---*---0-0-0---|0---0---0---0---|

D  :-----------------|----------------|----------------|----------------|
A  :-----------------|----------------|----------------|----------------|
F  :15---------------|----------------|----------------|----------------|
C  :-----------------|----------------|----------------|----------------|
G  :13---------------|----------------|----------------|----------------|
C  :---------0-0-0---|0---*---0-0-0---|0---*---0-0-0---|0---0---0---0---|

D  :-------------------|--------------------|--------------------|
A  :-------------------|--------------------|--------------------|
F  :-------------------|--------------------|10---10---10---10---|
C  :10-------10---10---|10---10---10---10---|--------------------|
G  :10-------10---10---|10---10---10---10---|-8----8----8----8---|
C  :10-------10---10---|10---10---10---10---|--------------------|

D  :----------------|----------------|----------------|----------------|
A  :----------------|----------------|----------------|----------------|
F  :9-------9---9---|----------------|----------------|----------------|
C  :----------------|----------------|----------------|----------------|
G  :7-------7---7---|5-----------8---|----8-------8---|----8-------8---|
C  :----------------|5-------5-------|5-------5-------|5-------5-------|

D  :-----------------|-----------------|------------------|
A  :-----------------|-----------------|------------------|
F  :-----------------|-----------------|------------------|
C  :-----------------|-----------------|------------------|
G  :----7---8---10---|8-----------10---|----10-------10---|
C  :5----------------|8-------8--------|8--------8--------|

D  :------------------|-----------------|----------------|----------------|
A  :------------------|-----------------|----------------|----------------|
F  :------------------|-----------------|----------------|----------------|
C  :------------------|---------7---8---|0---------------|----------------|
G  :----10-------10---|----10-----------|0-----------8---|----8-------8---|
C  :8--------8--------|8----------------|0-------0-------|0-------0-------|

D  :----------------|-----------------|----------------|----------------|
A  :----------------|-----------------|----------------|----------------|
F  :----------------|-----------------|----------------|----------------|
C  :----------------|-----------------|3---------------|----------------|
G  :----8-------8---|----7---8---10---|3-----------7---|----7-------7---|
C  :0-------0-------|0----------------|3-------3-------|3-------3-------|

D  :----------------|-----------------|----------------|----------------|
A  :----------------|-----------------|----------------|----------------|
F  :----------------|-----------------|----------------|----------------|
C  :----------------|----8---7--------|----------------|----------------|
G  :----7-------7---|------------10---|5-----------8---|----8-------8---|
C  :3-------3-------|3----------------|5-------5-------|5-------5-------|

D  :----------------|-----------------|-----------------|------------------|
A  :----------------|-----------------|-----------------|------------------|
F  :----------------|-----------------|-----------------|------------------|
C  :----------------|-----------------|-----------------|------------------|
G  :----8-------8---|----7---8---10---|8-----------10---|----10-------10---|
C  :5-------5-------|5----------------|8-------8--------|8--------8--------|

D  :------------------|----------------|----------------|----------------|
A  :------------------|----------------|----------------|----------------|
F  :------------------|----------------|----------------|----------------|
C  :------------------|----8---8---8---|0---------------|----7-----------|
G  :----10-------10---|----8---8---8---|0-----------8---|------------8---|
C  :8--------8--------|8---8---8---8---|0-------0-------|0-------0-------|

D  :-----------------|-----------------|----------------|----------------|
A  :-----------------|-----------------|----------------|----------------|
F  :-----------------|-----------------|----------------|----------------|
C  :----10-----------|-----------------|3---------------|----------------|
G  :-------------8---|----7---8---10---|3-----------7---|----7-------8---|
C  :0--------0-------|0----------------|3-------3-------|3-------3-------|

D  :----------------|----------------|----------------|----------------|
A  :----------------|----------------|----------------|----------------|
F  :----------------|----------------|----------------|----------------|
C  :----------------|----3---3---3---|0---------------|----0-----------|
G  :7-------5---3---|----3---3---3---|0-------0---0---|----0-----------|
C  :----------------|----3---3---3---|0-------0---0---|----0-----------|

D  :----------------|----------------|----------------|----------------|
A  :----------------|----------------|----------------|----------------|
F  :----------------|----------------|----------------|----------------|
C  :----0-----------|----0-----------|8---------------|----8-----------|
G  :----0-----------|----0-----------|8-------8---8---|----8-----------|
C  :----0-----------|----0-----------|8-------8---8---|----8-----------|

D  :----------------|----------------|----------------|----------------|
A  :----------------|----------------|----------------|----------------|
F  :----------------|----------------|----------------|----------------|
C  :----8-----------|----8-----------|5---------------|----5-----------|
G  :----8-----------|----8-----------|5-------5---5---|----5-----------|
C  :----8-----------|----8-----------|5-------5---5---|----5-----------|

D  :----------------|----------------|----------------|----------------|
A  :----------------|----------------|----------------|----------------|
F  :----------------|----------------|----------------|----------------|
C  :----5-----------|----5-----------|3---------------|----3-----------|
G  :----5-----------|----5-----------|3-------3---3---|----3-----------|
C  :----5-----------|----5-----------|3-------3---3---|----3-----------|

D  :----------------|----------------|----------------|----------------|
A  :----------------|----------------|----------------|----------------|
F  :----------------|----------------|----------------|----------------|
C  :----2-----------|----2-----------|0---------------|----0-----------|
G  :----3-----------|----3-----------|0-------0---0---|----0-----------|
C  :----2-----------|----2-----------|0-------0---0---|----0-----------|

D  :----------------|----------------|----------------|----------------|
A  :----------------|----------------|----------------|----------------|
F  :----------------|----------------|----------------|----------------|
C  :----0-----------|----0-----------|8---------------|----8-----------|
G  :----0-----------|----0-----------|8-------8---8---|----8-----------|
C  :----0-----------|----0-----------|8-------8---8---|----8-----------|

D  :----------------|----------------|----------------|----------------|
A  :----------------|----------------|----------------|----------------|
F  :----------------|----------------|----------------|----------------|
C  :----8-----------|----8-----------|5---------------|----5-----------|
G  :----8-----------|----8-----------|5-------5---5---|----5-----------|
C  :----8-----------|----8-----------|5-------5---5---|----5-----------|

D  :----------------|----------------|----------------|----------------|
A  :----------------|----------------|----------------|----------------|
F  :----------------|----------------|----------------|----------------|
C  :----5-----------|----5-----------|7---------------|----7-----------|
G  :----5-----------|----5-----------|7-------7---7---|----7-----------|
C  :----5-----------|----5-----------|7-------7---7---|----7-----------|

D  :----------------|-------------------|----------------|
A  :----------------|-------------------|----------------|
F  :----------------|-------------------|----------------|
C  :----7-----------|----10---10---10---|0---------------|
G  :----7-----------|----10---10---10---|0---------------|
C  :----7-----------|----10---10---10---|0-----------*---|

            
            
Suggest correction
Creating personal tab
Creating personal tab
You can edit any tab online and save it as your Personal.

You can edit, replace or remove any tab part or add personal notes – all changes will be seen only by you.

Personal tabs can be accessed anytime from any device, even offline.
Learn more »
comments
print report bad tab
2 comments total.
0 reply
inxthexface 10 Feb 20, 2009 02:47 AM

thats awesome!!!!! thanks man

0 reply
KevinGuitarGod 51 Apr 04, 2009 09:27 PM

Wrong

guest
You may want to rate the tab now too:
select rating
Wanna post a correction for this tab? Suggest correction