Oops, an error
Loading. Please wait.

I Love Her But She Loves Someone Else intro tab

by Sting
232 views 12 this week
no commentswrite comment
1 2 3 4 5
3 more votes to show rating
add to favorites
×
Save as Personal and add changes to this tab that will be seen only by you. Learn more ›
×
You can save this tab as Personal to edit and correct it or add notes. All changes will be seen only by you. Learn more »
launch autoscroll
font size
0
reset
how to read this tab
guitar tuner
edit
Autoscroll
slow
fast
+/-
esc
set tempo
stop
I Love Her But She Loves Someone Else
Sting- The Last Ship
Key: Bm
Time: 3/4

   Bm
e|----2--2-----2--2-----2--2-----2--2--|
B|----3--3-----3--3-----3--3-----3--3--|
G|-------------------4-----------------|
D|----------4-----------------4--------|
A|--2----------------------------------|
E|-------------------------------------|

   Bm
e|----2--2-----2--2-----2--2-----2--2--|
B|----3--3-----3--3-----3--3-----3--3--|
G|-------------------4-----------------|
D|----------4-----------------4--------|
A|--2----------------------------------|
E|-------------------------------------|

   Bm                F#
e|-----2--2-----2--2-----2--2-----2--2--|
B|-----3--3-----3--3-----2--2-----2--2--|
G|-----4--4-----4--4-----3--3-----3--3--|
D|--------------------------------------|
A|--2--------2--------4--------4--------|
E|--------------------------------------|
  When a man of my age shaves his face in the morning,

    B7               Em
e|-----2--2-----2--2-----2--2-----0--0--|
B|-----0--0-----0--0-----0--0-----0--0--|
G|-----2--2-----2--2-----0--0-----0--0--|
D|--1--------1--------2--------2--------|
A|--------------------------------------|
E|--------------------------------------|
   who is it stares back and greets him?

    Em
e|-----0--0-----0--0-----0--0-----0--0--|
B|-----0--0-----0--0-----0--0-----0--0--|
G|-----0--0-----0--0-----0--0-----0--0--|
D|--------------------------------------|
A|--------------------------------------|
E|--0--------0--------3--------3--------|
   The ghost of his father long dead all these years?

    A
e|-----0--0-----0--0-----0--0-----0--0--|
B|-----2--2-----2--2-----2--2-----2--2--|
G|-----2--2-----2--2-----2--2-----2--2--|
D|--------------------------------------|
A|--0--------0-----------------0--------|
E|--------------------0-----------------|
   Or the boy that he was, still wet in the ears?

   F#                Bm
e|-----2--2-----2--2-----2--2-----2--2--|
B|-----2--2-----2--2-----3--3-----3--3--|
G|-----3--3-----3--3-----4--4-----4--4--|
D|--------------------------------------|
A|--------------------2-------2---------|
E|--2--------2--------------------------|
   Or the terrible sum of all of his fears

  C#mb7              F#
e|-----3--3-----3--3-----2--2-----2--2--|
B|-----2--2-----2--2-----2--2-----2--2--|
G|-----4--4-----4--4-----3--3-----3--3--|
D|--------------------------------------|
A|--2--------2--------------------------|
E|--------------------2--------2--------|
   In the eyes of this stranger who meets him?

 Bm                F#
e|-----2--2-----2--2-----2--2-----2--2--|
B|-----3--3-----3--3-----2--2-----2--2--|
G|-----4--4-----4--4-----3--3-----3--3--|
D|--------------------------------------|
A|--2--------2--------4--------4--------|
E|--------------------------------------|
  So his glance rarely strays from his chin or his jawline

    B7               Em
e|-----2--2-----2--2-----2--2-----0--0--|
B|-----0--0-----0--0-----0--0-----0--0--|
G|-----2--2-----2--2-----0--0-----0--0--|
D|--1--------1--------2--------2--------|
A|--------------------------------------|
E|--------------------------------------|
   to face up to the truth of his soul.

    Em
e|-----0--0-----0--0-----0--0-----0--0--|
B|-----0--0-----0--0-----0--0-----0--0--|
G|-----0--0-----0--0-----0--0-----0--0--|
D|--------------------------------------|
A|--------------------------------------|
E|--0--------0--------3--------3--------|
   It's the eyes he avoids, so afraid to aknowledge

    A                   F#
e|-----0--0-----0--0-----2--2-----2--2--|
B|-----2--2-----2--2-----2--2-----2--2--|
G|-----2--2-----2--2-----3--3-----3--3--|
D|--------------------------------------|
A|--0--------0--------------------------|
E|--------------------2--------2--------|
   something strange, unexpected, out of control.

   Em11             GMaj9
e|-----2--2-----2--2-----2--2-----2--2--|
B|-----3--3-----3--3-----3--3-----3--3--|
G|-----0--0-----0--0-----0--0-----0--0--|
D|--------------------------------------|
A|--------------------0--------0--------|
E|--0--------0--------------------------|
   There are times when a man needs to brave his reflection

    G9       A7       Bm
e|-----2--2-----0--0-----2--2-----2--2--|
B|-----3--3-----2--2-----3--3-----3--3--|
G|-----0--0-----0--0-----4--4-----4--4--|
D|--------------------------------------|
A|--0--------0--------2--------2--------|
E|--------------------------------------|
   and face what he sees without fear.

  Gmaj7              Em7
e|-----2--2-----2--2-----0--0-----0--0--|
B|-----3--3-----3--3-----3--3-----3--3--|
G|-----0--0-----0--0-----0--0-----0--0--|
D|--------------------------------------|
A|--------------------------------------|
E|--3--------3--------0--------0--------|
   It takes a man to accept his mortality

e|-----3--3-----3--3-----2--2-----2--2--|
B|-----2--2-----2--2-----2--2-----2--2--|
G|-----4--4-----4--4-----3--3-----3--3--|
D|--------------------------------------|
A|--4--------4--------------------------|
E|--------------------2--------2--------|
   or be surprised by the presence of a tear.

  GMaj7   G6  Bsus4   B
e|--2-----0-----2-----2-----|
B|--3-----3-----5-----4-----|
G|--0-----0-----4-----4-----|
D|--------------------------|
A|--------------------------|
E|--3-----3-----2-----2-----|
   It was only an arrangement, a practical arrangement.

  E#dim7 C#7 F#sus4  F#
e|--1-----4-----2-----2-----|
B|--3-----6-----2-----2-----|
G|--1-----4-----4-----3-----|
D|--------------------------|
A|--2-----4-----------------|
E|--------------2-----2-----|
   I forgot the first commandment of the realist's handbook.

  GMaj7   G6  Bsus4   B
e|--2-----0-----2-----2-----|
B|--3-----3-----5-----4-----|
G|--0-----0-----4-----4-----|
D|--------------------------|
A|--------------------------|
E|--3-----3-----2-----2-----|
   Don't be fooled by illusions you created yourself

  E#dim7 C#7  Bm/F#   F#
e|--1-----4-----2-----2-----|
B|--3-----6-----3-----2-----|
G|--1-----4-----4-----3-----|
D|--------------------------|
A|--2-----4-----------------|
E|--------------2-----2-----|
   And fall in love with someone when she loves someone else.

            
            
Suggest correction
Creating personal tab
Creating personal tab
You can edit any tab online and save it as your Personal.

You can edit, replace or remove any tab part or add personal notes – all changes will be seen only by you.

Personal tabs can be accessed anytime from any device, even offline.
Learn more »
Give kudos to tab author, rate the tab!
1 2 3 4 5
comments
print report bad tab
guest
You may want to rate the tab now too:
select rating
Wanna post a correction for this tab? Suggest correction