Oops, an error
Loading. Please wait.

And So I Know bass

version 2
version 2

Whole song

Interactive

1,111 views 1 this week
1 commentread comment
1 2 3 4 5
x 4
add to favorites
×
Save as Personal and add changes to this tab that will be seen only by you. Learn more ›
×
You can save this tab as Personal to edit and correct it or add notes. All changes will be seen only by you. Learn more »
launch autoscroll
font size
0
reset
guitar tuner
edit
Autoscroll
slow
fast
+/-
esc
set tempo
stop
Author
Difficulty
Stone Temple Pilots - 'And So I Know'
From the Album "Tiny Music..."
Standard Bass tuning, mellow eq setting
tabbed by jjhand for ultimate-guitar.com

Guitar chords are noted from my other tab. The bass part is pretty 
simple, with only a few repeating riffs. Please rate or comment to help
me improve. Thanks!


Intro - Count 1 beat (guitar notes) then play this 2x
 
   B/E                                     Em9
   1    2    3    4      1           4     1    2    3    4
G|--------------------|------------------|---------------------|
D|--------------------|------------------|---------------------|
A|------7------6------|------------------|----9/10-----9-------|
E|-0----------------7-|-(7)--------0-4-7-|-0----------------10-|


G|--------------------|
D|--------------------|
A|--------------------|
E|-(10)---------0-4-7-|



Verse - Play Intro Riff for 8 bars




Chorus 1 (0:37)
   Amaj7                               Cmaj7
   1   2   3   4     1   2   3   4     1   2   3   4     1   2   3   4
G|-----------------|-----------------|-----------------|----------------|
D|-----------------|-----------------|-----------------|----------------|
A|-----------------|-----------------|-------------5---|-7---9---10--/12|
E|-5---------4---5-|-----5-------5-7-|-8---------------|----------------|



Verse Riff 2
   1    2    3    4     1           4     1    2    3    4
G|--------------------|-----------------|---------------------|
D|--------------------|-----------------|---------------------|
A|---------------/9---|-7---------------|----9/10-----9-------|
E|-0------------------|-----------0-4-7-|-0----------------10-|


G|--------------------|
D|--------------------|
A|--------------------|  play Verse again (8 bars of intro)
E|-(10)---------0-4-7-|





Chorus 2 (1:13) - Same as Chorus 1


Play Verse Riff 2, then play Intro 1x


Chorus return (1:40) - Same as Chorus 1, then add this:

  C#7                        A#m/F#      
G|------------|------------|---------3---|-----------------|
D|--------3---|------------|-4-----------|-----------------|
A|--4-------4-|-(4)------4-|-----------4-|-(4)---------4---|
E|------------|--------4---|-------------|-----------4---4-|

  Esus4         B7
G|------------|---------------|
D|-4----------|---------------|
A|----------4-|-2---------2-4-|
E|------------|---------2-----|






Guitar Solo (2:02) - Play Intro 4x


Final Chorus (2:39) - Play Chorus Return as shown above


Repeat Intro several times to end song

            
            
Suggest correction
Creating personal tab
Creating personal tab
You can edit any tab online and save it as your Personal.

You can edit, replace or remove any tab part or add personal notes – all changes will be seen only by you.

Personal tabs can be accessed anytime from any device, even offline.
Learn more »
comments
print report bad tab
1 comment total.
+1 reply
chronic_stp 351 Jul 08, 2010 11:14 PM

YOU ARE THE MAN THANK YOU SO MUCH

guest
You may want to rate the tab now too:
select rating
Wanna post a correction for this tab? Suggest correction