Oops, an error
Loading. Please wait.

Army Ants bass

version 1
version 1

Whole song

Interactive

1,915 views 3 this week
no commentswrite comment
1 2 3 4 5
3 more votes to show rating
add to favorites
×
Save as Personal and add changes to this tab that will be seen only by you. Learn more ›
×
You can save this tab as Personal to edit and correct it or add notes. All changes will be seen only by you. Learn more »
launch autoscroll
font size
0
reset
guitar tuner
edit
Autoscroll
slow
fast
+/-
esc
set tempo
stop
Author
Difficulty
Intro
G|---|
D|---|
A|-5-| Keep tapping this one note quietly with guitar’s rhythm
E|---|

Pre-Verse/Chorus 
 
G|----------------------------------|
D|----------------------------------|
A|-55555555--------88888888---------|
E|---------55557777--------88888888-|

Verse 
 
G|------------------|
D|-------5-5--4-5-4-|
A|-----7------------|
E|-555--------------|

End of Verse
G|-----------------------|
D|-----------------------|
A|-----------------------|
E|xxxx-5555-3--5-555-3-3-| 
(mutes are only for the first time through)

Bridge
G|--------------------------------|
D|--------------------------------|
A|-6666xx----------5--5-5-5-555555|
E|-------5--55-5-xx---------------|

Lead into Interlude
G|--------------------|
D|--------------------|
A|-6666xx-----------5-|
E|-------5--55-5-xx---|

Interlude 

G|--2-------1-------5----4-----3----2----1-----5---4----3----2-|


(For the interlude, same rhythm as guitar)

Ending Bridge 

G|-------------------------------|
D|-------------------------------|
A|-6666xx----------5555xx--------|
E|-------5--55-5-xx------4--44-4-|

Outro
G|--------------------------|
D|--------------------------|
A|------------------------6-|
E|-5-5-5-5-555-5-5-5-5-555--|

(all staccato except for last note)


Order 

Pre-Verse x 4
Verse x 4
End of Verse x 4
Chorus x 4 
Verse x 4
End of Verse x 4
Chorus x 4
Bridge x 1
Lead into Interlude x 1
Interlude x 1
Pre-Verse x 4
Bridge x 2
Ending Bridge x 1
Verse x 4
End of Verse x 4
Outro x 1 

            
            
Suggest correction
Creating personal tab
Creating personal tab
You can edit any tab online and save it as your Personal.

You can edit, replace or remove any tab part or add personal notes – all changes will be seen only by you.

Personal tabs can be accessed anytime from any device, even offline.
Learn more »
Give kudos to tab author, rate the tab!
1 2 3 4 5
comments
print report bad tab
guest
You may want to rate the tab now too:
select rating
Wanna post a correction for this tab? Suggest correction