Oops, an error
Loading. Please wait.

Between The Lines bass

version 1
version 1

Whole song

Interactive

5,269 views 1 this week
no commentswrite comment
1 2 3 4 5
2 more votes to show rating
add to favorites
×
Save as Personal and add changes to this tab that will be seen only by you. Learn more ›
×
You can save this tab as Personal to edit and correct it or add notes. All changes will be seen only by you. Learn more »
launch autoscroll
font size
0
reset
guitar tuner
backing track
0:00
0:00
edit
Autoscroll
slow
fast
+/-
esc
set tempo
stop
Author
Difficulty
Stone Temple Pilots - "Between The Lines"
New single from Self-Titled 2010 Album
Bass Guitar - Standard Tuning 
tabbed by jjhand




Intro - play 2x
G|------------------------|
D|------------------------|
A|-3--3-----3--3-----3----|
E|-------3--------3-------|



Verse - play 8x
G|------------------------|
D|------3-----3--5--3-----|
A|-5-------5-----------5--|
E|------------------------|

"Lovely disguise, read between the lines
You rock the magic plane with no abbreviation
Free, what you sell what you bought
But there ain’t no magic pen to get back what you lost"






PreChorus - 

G|-------------------------|----------------------|
D|-------------------------|------3-----3/5--7----|
A|-3--3-----3--3-----3--5--|-5-------5------------|
E|-------5--------5--------|----------------------|

"I like it when we talk about love
 

G|-------------------------|-----------------------|
D|-10-10----10-10----10-12-|-/12---10--------------|
A|-------12-------12-------|------------12-10------|
E|-------------------------|------------------13\--|

I like it when you talk about love
 

G|-------------------------|----------------------|
D|-------------------------|------3-----3/5--7----|
A|-3--3-----3--3-----3--5--|-5-------5------------|
E|-------5--------5--------|----------------------|
You always were my favorite drug"




Prechorus End Riff
G|-------------------------|
D|-10-10----10-10----10----|
A|-------12-------12----12-|
E|-------------------------|
  "Even when we used to take ..."






Chorus - play 4x, repeat lyrics too
   D5            G5         F5            C5
G|------------------------|------------------------|
D|------------------------|------------------------|
A|-5----5-----------------|---------------3--3-----|
E|---------------3--3-----|-1----1--------------3--|

"Drugs...                  Even when we used to take"


Chorus Ending
G|------------------------|------------------------|
D|------------------------|/10-10----10-10----10~--|
A|-3--3-----3--3-----3----|-------12-------12------|
E|-------3--------3-------|------------------------|




Verse 2 - Same as verse 1

Lyrics:
"Penguins dont fly Crocodile sunday smile
Really like to fish but dont like superficial people
Shoe store heard it all before
From pearly whites to pearly gates What do we have to argue about"



Play PreChorus Again

Play Chorus again 








(1:31) Bridge - play 3x
G|-------------------------|------------------------|
D|-------------------------|------------------------|
A|-0----0---------5--5\3---|-3----3--------------0--|
E|-------------------------|---------------3--3-----|


End Bridge
G|-------------------------|------------10----------|
D|-------------------------|--------/10----12-10----|
A|-0----0---------5--5\3---|-3-------------------10-|
E|-------------------------|------------------------|






(1:45) Dean's Solo
G|------------------------|------------------------|
D|------------------------|------------------------|
A|-5----5-----------------|---------------3--3-----|
E|---------------3--3-----|-1----1--------------3--|


G|------------------------|-------------------------|
D|------------------------|------/12-10----10-------|
A|-5----5-----------------|-------------12----12-10-|
E|---------------3--3-----|-1-----------------------|


G|------------------------|------------------------|
D|------------------------|------------------------|
A|-5----5-----------------|---------------3--3-----|
E|---------------3--3-----|-1----1--------------3--|


G|------------------------|------------------------|
D|------------------------|------------------------|
A|-5----5-----------------|---------------3--3-----|
E|---------------3--3-----|-1----1--------------3--|


G|------------------------|------------------------|
D|------------------------|/10-10----10-10----10~--|
A|-3--3-----3--3-----3----|-------12-------12------|
E|-------3--------3-------|------------------------|



Rest for nearly 4 bars then slide at 2:09

G|------------------------|
D|------------------------|
A|------------------------|
E|-----------------/10\---|


Play Verse Riff & Prechorus again

Play Chorus again



Ending 
G|------------------------|------------------------|----------|
D|------------------------|------------------------|----------|
A|-3--3-----3--3-----3----|-3--3-----3--3-----3----|-5\-------|
E|-------3--------3-------|-------3--------3-------|----------|




Key:
| /   slide up
| \   slide down
| h   hammer-on
| p   pull-off
| ~   vibrato

            
            
Suggest correction
Creating personal tab
Creating personal tab
You can edit any tab online and save it as your Personal.

You can edit, replace or remove any tab part or add personal notes – all changes will be seen only by you.

Personal tabs can be accessed anytime from any device, even offline.
Learn more »
Give kudos to tab author, rate the tab!
1 2 3 4 5
comments
print report bad tab
guest
You may want to rate the tab now too:
select rating
Wanna post a correction for this tab? Suggest correction