Oops, an error
Loading. Please wait.

Black Again bass

605 views 6 this week
1 commentread comment
1 2 3 4 5
1 last vote to show rating
add to favorites
×
Save as Personal and add changes to this tab that will be seen only by you. Learn more ›
×
You can save this tab as Personal to edit and correct it or add notes. All changes will be seen only by you. Learn more »
launch autoscroll
font size
0
reset
guitar tuner
edit
Autoscroll
slow
fast
+/-
esc
set tempo
stop
Author
*** Please consider adding this tab since there is no current bass tab on the site 
for this song. Thanks and remove this comment if you post. 

Stone Temple Pilots - Black Again, Bass Tab
From 'Shangri-La De Da'
Tuning - Standard tabbed by jjhand

Notes: Amp EQ is set with very little treble (sounds kinda muddy), rhythm indicated by tab spacing. Footage of STP playing this song shows Robert playing the fuzz effect parts high on the neck, so I am assuming he uses a fuzz & octave effect on this to sound lower in tone.

Intro (w/ Fuzz Octave pedal) - Play 4x
G|----------------|------------------|
D|----------------|------------------|
A|-12----14-15----|------------------|
E|----------------|-12----14-15------|



Verses (clean, so make sure fuzz pedal turns off!)
G|----------5--4--------|--------------------|-5--------5/7--5--55--|----------5-5---------|
D|----------------2h3h5-|----------2---2-3-5-|--------5-----------5-|--------------5--2-5--|
A|-3------3-------------|-3------3---3-------|----------------------|-3------3-------------|
E|----------------------|--------------------|----------------------|----------------------|

G|--------------------|-----------14-12--------12-|-5-----5-----------|-------------------|
D|----------2---2-3-5-|-10------10-----14-12h14---|---------5---------|-------12----------|
A|-3------3---3-------|---------------------------|-----------3--3--3-|-------------------|
E|--------------------|---------------------------|-------------------|-10-------10-10-10-|
B|--------------------|---------------------------|-------------------|-------------------|


Chorus (w/ Fuzz Octave pedal)
G|----------------|------------------|-----------------|-5--------------------10|
D|----------------|------------------|-------------5-7-|-10------12-10---10h12--|
A|-7------7----5--|-3----------------|-7------7--------|-------12-----12--------|
E|----------------|------------------|-----------------|------------------------|

G|----------------|------------------|-----------------|--------------------|
D|----------------|------------------|-------------5-7-|-10------12--10--10-|
A|----------------|------------------|-7------7--------|-------12------12---|
E|-7------7----5--|-3----------------|-----------------|--------------------|

------------------|---------------|
--9------9-9---9--|-8----8--8--8--|
-------------9----|---------------|
------------------|---------------|


Play Intro (4x through as before)
Play Verses
Play Chorus
Play Intro (4x)

Play Chorus to Ending 
Play this instead of last regular Chorus bar
G|----------------|
D|-8--------------|
A|----------------|
E|----------------|


Key:
h  hammer on
/  slide

            
            
Suggest correction
Creating personal tab
Creating personal tab
You can edit any tab online and save it as your Personal.

You can edit, replace or remove any tab part or add personal notes – all changes will be seen only by you.

Personal tabs can be accessed anytime from any device, even offline.
Learn more »
Give kudos to tab author, rate the tab!
1 2 3 4 5
comments
print report bad tab
1 comment total.
0 reply
jjhand 19,283 Jan 02, 2015 06:15 PM

After seeing some footage of Robert DeLeo playing it appears that the notes played with the fuzz effect are up an octave on the A string. I am assuming it is some fuzz pedal with an added low octave.

guest
You may want to rate the tab now too:
select rating
Wanna post a correction for this tab? Suggest correction