Oops, an error
Loading. Please wait.

Dead And Bloated tab

version 3
version 3

Whole song

Interactive

8,060 views 3 this week
4 commentsread comments
1 2 3 4 5
x 4
add to favorites
×
Save as Personal and add changes to this tab that will be seen only by you. Learn more ›
×
You can save this tab as Personal to edit and correct it or add notes. All changes will be seen only by you. Learn more »
launch autoscroll
font size
0
reset
how to read this tab
guitar tuner
backing track
0:00
0:00
edit
Autoscroll
slow
fast
+/-
esc
set tempo
stop
Author
#----------------------------------PLEASE NOTE--------------------------------#
#This file is the author's own work and represents their interpretation of the#
#song. You may only use this file for private study, scholarship, or research.#
#-----------------------------------------------------------------------------#
#-- File created with Instab - http://www.pconline.com/~smcarey/instab.html --#
#-----------------------------------------------------------------------------#

Author/Artist: Stone Temple Pilots
Title: Dead & Bloated

A Arpeggio
p pull off
/ slide up
\ slide down


Tuning (eb A D G B E)
Live Standard Tuning
Key: (F# + A)



   |---------------------------------------------------------------------------|
   |---------------------------------------------------------------------------|
   |---------------------------------------------------------------------------|
   |-------7---7-7-------7---7-7------------7---7-7----7---7-7---7---7-7-------|
   |-5--5--6p5-3-5p3-5---6p5-3-5p3-5--5--5--6p5-3-5----6p5-3-5---6p5-3-5p3-5-5-|
   |-6--6------------6-------------6--6--6---------------------------------6-6-|
Intro/Verse






   |------------------------------------------------------------|
   |-----------8------------------------------------------------|
   |-8--8--x-x-7---7--------7----x----x-x----x--------x---------|
   |-9--9--x-x-9---9-9---9--9-9--x----x-x----x----7-7-x-7-7-7-7-|
   |-9---------10----10--10---10---7------7----7--7-7---7-7-7-7-|
   |-----------------x---x----x----8------8----8--x-x---x-x-x-x-|
Riff 1                        





   |---------------------------------------------------|--|
   |---------------------------------------------------|--|
   |------------------------------9-------9------------|--|
   |--------------------------9---9---9---9------------|3x|
   |--------------------------7-------7----------------|--|
   |-1-3-3-1-3-3--------------x-------x----------------|--|
Interlude                   





   |----------------------------|---------------------------|--|---|
   |----------------------------|---------------------------|--|---|
   |----------------------------|---------x---------x-------|--|---|
   |----------------------------|-5\--2-2-x-5\--2-2-x-2-2-2-|2x|---|
   |-9---8--8---7--6-6--6-6-6---|-5\--2-2---5\--2-2---2-2-2-|--|-4-|
   |-8---7--7---6--5-5--5-7-5---|-x---x-x---x---x-x---x-x-x-|--|-3-|
Chorus                          



            
            
Suggest correction
Creating personal tab
Creating personal tab
You can edit any tab online and save it as your Personal.

You can edit, replace or remove any tab part or add personal notes – all changes will be seen only by you.

Personal tabs can be accessed anytime from any device, even offline.
Learn more »
comments
print report bad tab
4 comments total. Showing first comments.
0 reply
JimBonJovi 851 Mar 24, 2010 08:23 AM

Your tab is 5 star worthy but without making myself sound like I have a massive ego, I feel as though the version of Dead & Bloated that which I tabbed out is closer to the real thing that Dean plays. Again, great tab and solid effort, I just prefer mine.

0 reply
bolsterj 10 Apr 28, 2013 06:23 AM

This tab is a waste of space it couldn't be more wrong and its wasting peoples time.

0 reply
spgeise 10 Dec 10, 2016 01:33 AM

Is this a serious tab?

guest
You may want to rate the tab now too:
select rating
Wanna post a correction for this tab? Suggest correction