Oops, an error
Loading. Please wait.

I Got You tab

version 1
version 1

Whole song

Interactive

5,466 views 12 this week
1 commentread comment
1 2 3 4 5
1 last vote to show rating
add to favorites
×
Save as Personal and add changes to this tab that will be seen only by you. Learn more ›
×
You can save this tab as Personal to edit and correct it or add notes. All changes will be seen only by you. Learn more »
launch autoscroll
font size
0
reset
how to read this tab
guitar tuner
edit
Autoscroll
slow
fast
+/-
esc
set tempo
stop
Author
Difficulty
Stone Temple Pilots - 'I Got You'
Album: 'No. 4'
Standard Tuning, except Slide Guitar tunes high string to d 
Tabbed by jjhand

Note- A couple spots have 3 guitar parts all at once. Updated 12/11/08.

Intro - Acoustic   
e|---------------1-|-(1)-----|-0---0---0-0---0-|-(0)---------|-7---7---7-7---7-|----7---7---7-7-|
B|-3---3---3-3---1-|-(1)-----|-0---0---0-0---1-|-(1)---------|-7---7---7-7---7-|----7---7---7-7-|
G|-2---2---2-2---2-|-(2)-----|-1---1---1-1---0-|-(0)---------|-8---8---8-8---8-|----8---8---8-8-|
D|-0---0---0-0---3-|-(3)-----|-2---2---2-2---2-|-(2)---------|-9---9---9-9---9-|----9---9---9-9-|
A|-0---0---0-0---3-|-(3)-----|-2---2---2-2---3-|-(3)---------|-9---9---9-9---9-|----9---9---9-9-|
E|---------------1-|-(1)-----|-0---0---0-0---3-|-(3)---------|-7---7---7-7---7-|----7---7---7-7-|
 |
 | Slide Guitar (pinky on high e notes, let all ring)
d|---------8-------|------------|---------10----\-|-4/5-------5-|-\4-----4-7------|----------|
B|-----7---------/-|-9/10-------|-----9---------\-|-4/5-------5-|-\4---4------4/5-|-4/5\4~---|
G|-7-------------/-|-9/10-------|-9-------------\-|-------------|-----------------|----------|
D|-----------------|------------|-----------------|-------------|-----------------|----------|
A|-----------------|------------|-----------------|-------------|-----------------|----------|
E|-----------------|------------|-----------------|-------------|-----------------|----------|


Verse Riff 1
Acoustic
e|-----------------|-------------------|-1---1---1-1---1-|-1---1---1-1---1-|
B|-3-------------3-|-3--3------3-3-3-3-|-1---1---1-1---1-|-1---1---1-1---1-|
G|-2-------------2-|-2--2------2-2-2-2-|-2---2---2-2---2-|-2---2---2-2---2-|
D|-0-------------0-|-0--0------0-0-0-0-|-3---3---3-3---3-|-3---3---3-3---3-|
A|-0-------------0-|-0--0------0-0-0-0-|-3---3---3-3---3-|-3---3---3-3---3-|
E|-----------------|-------------------|-1---1---1-1---1-|-1---1---1-1---1-|

e|-----------------|-------------------|-1---1---1-1---1-|-1---1---1-1-1---|
B|-3---3---------3-|-3--3------3---3---|-1---1---1-1---1-|-1---1---1-1-1---|
G|-2---2---------2-|-2--2------2---2---|-2---2---2-2---2-|-2---2---2-2-2-0-|
D|-0---0---------0-|-0--0------0---0---|-3---3---3-3---3-|-3---3---3-3-3-0-|
A|-0---0---------0-|-0--0------0---0---|-3---3---3-3---3-|-3---3---3-3-3-0-|
E|-----------------|-----------------0-|-1---1---1-1---1-|-1---1---1-1-1-0-|


Verse Riff 2 (2 Guitars, played 2x)
Acoustic
e|-0---0---0-0---0-|-0---0---0-0-0-0-|-----------------|-----------------|
B|-0---0---0-0---0-|-0---0---0-0-0-0-|-1---1---1-1---1-|-1---1---1-1---1-|
G|-1---1---1-1---1-|-1---1---1-1-1-1-|-0---0---0-0---0-|-0---0---0-0---0-|
D|-2---2---2-2---2-|-2---2---2-2-2-2-|-2---2---2-2---2-|-2---2---2-2---2-|
A|-2---2---2-2---2-|-2---2---2-2-2-2-|-3---3---3-3---3-|-3---3---3-3---3-|
E|-0---0---0-0---0-|-0---0---0-0-0-0-|-3---3---3-3---3-|-3---3---3-3---3-|
 |
 | Electric
e|-----12----12----|-----12----12----|-----8-----8-----|-----8-----8-----|
B|-----12----12----|-----12----12----|-----8-----8-----|-----8-----8-----|
G|-----13----13----|-----13----13----|-----9-----9-----|-----9-----9-----|
D|-----------------|-----------------|-----------------|-----------------|
A|-----------------|-----------------|-----------------|-----------------|
E|-----------------|-----------------|-----------------|-----------------|


Chorus 
Electric (Acoustic Strums Chords indicated)
   B                                 F#
e|-----------------|----------------|----------------|----------------|
B|-----------------|----------------|----------------|----------------|
G|-----------------|----------------|-6h8-6-------6--|-6h8-6-------6--|
D|-4h6-4--------4--|-4h6-4--------4-|-4---4-8-6-8-8--|-4---4-8-6-8-8--|
A|-2---2--6-4-6-6--|-2---2--6-4-6-6-|----------------|----------------|
E|-----------------|----------------|----------------|----------------|

   A                E                      B (play this bar 2x)
e|----------------|----------------------|-----------------|
B|----------------|----------------------|-----------------|
G|----------------|----------------------|-----------------|
D|-7-7-------7----|-9h11-9---------9-----|-4h6-4--------4--|
A|-7-7-7-7-7-7----|-7----7-11-9-11-11----|-2---2--6-4-6-6--|
E|-----9-7-9------|----------------------|-----------------|



(1:05) "Verse Riff 1 Variation" as follows (play 2x):
   Acoustic
e|-----------------|------------------|-1---1----1---1-|-1---1----1---1-|
B|-3---3------3--3-|-3---3-------3--3-|-1---1----1---1-|-1---1----1---1-|
G|-2---2------2--2-|-2---2-------2--2-|-2---2----2---2-|-2---2----2---2-|
D|-0---0------0--0-|-0---0-------0--0-|-3---3----3---3-|-3---3----3---3-|
A|-0---0------0--0-|-0---0-------0--0-|-3---3----3---3-|-3---3----3---3-|
E|-----------------|------------------|-1---1----1---1-|-1---1----1---1-|
 |
 | Electric
e|-----10----10-10-|-----10----10-10-|------8----8---8-|-----8----8---8-|
B|-----10----10-10-|-----10----10-10-|-----10---10--10-|----10---10--10-|
G|-----11----11-11-|-----11----11-11-|-----10---10--10-|----10---10--10-|
D|-----------------|-----------------|-----------------|----------------|
A|-----------------|-----------------|-----------------|----------------|
E|-----------------|-----------------|-----------------|----------------|
 |
 | Electric 2 (last note occurs in next bar on repeats)
e|-----------------|-----------------|-----------------|----------------|
B|-----------------|-----------------|-----------------|----------------|
G|-----------------|-----------------|-----------------|----------------|
D|-----------------|--------------0--|-----------------|----------------|
A|-----------------|-----------0-----|-3-------2-------|-0--------------|
E|-----------------|-----------------|-----------------|--------3-------|

   Acoustic
e|-----------------|------------------|-1---1----1---1-|-1---1----1---1-|
B|-3---3------3--3-|-3---3-------3--3-|-1---1----1---1-|-1---1----1---1-|
G|-2---2------2--2-|-2---2-------2--2-|-2---2----2---2-|-2---2----2---2-| go to
D|-0---0------0--0-|-0---0-------0--0-|-3---3----3---3-|-3---3----3---3-| Verse Riff 2  
A|-0---0------0--0-|-0---0-------0--0-|-3---3----3---3-|-3---3----3---3-|
E|-----------------|------------------|-1---1----1---1-|-1---1----1---1-|
 |
 | Electric
e|-----10----10-10-|-----10----10-10-|------8----8---8-|-----8----8---8-|
B|-----10----10-10-|-----10----10-10-|-----10---10--10-|----10---10--10-|
G|-----11----11-11-|-----11----11-11-|-----10---10--10-|----10---10--10-| go to 
D|-----------------|-----------------|-----------------|----------------| Verse Riff 2
A|-----------------|-----------------|-----------------|----------------|
E|-----------------|-----------------|-----------------|----------------|
 |
 | Electric 2 (last note occurs in next bar on repeats)
e|-----------------|-----------------|-----------------|----------------|-----
B|-----------------|-----------------|-----------------|----------------|-----
G|-----------------|-----------------|-----------------|----------------|-----
D|-----------------|--------------0--|-----------------|----------------|-----
A|-----------------|-----------0-----|-3-------2-------|-0--------------|--2--
E|-2---------------|-----------------|-----------------|--------3-------|-----


Electric 2 ends as Verse riff 2 starts, but the Slide Guitar comes back in (1:23)
d|------------|---------------|---------------|--------------|-/9------|-9---9------9\-|
B|-/9---------|-9---9~------\-|-5-------------|-(5)------5\0-|-/9------|-------9----9\-|
G|-/9---------|-------9~----\-|-5-------------|-(5)------5\0-|---------|---------------|
D|------------|---------------|---------------|--------------|---------|---------------|
A|------------|---------------|---------------|--------------|---------|---------------|
E|------------|---------------|---------------|--------------|---------|---------------|

e|-\5---------|-----------5\0-|-/4--|
B|-\5---------|-----------5\0-|-/4--|
G|------------|---------------|-----|
D|------------|---------------|-----|
A|------------|---------------|----- This part ends as Chorus begins 
E|------------|---------------|-----|   

Play Chorus Again

Break part (1:56) - Acoustic
e|-7-7---6-6---5--|-(5)---5-5---5----5-|-7-7---6-6----5---|-(5)---5-5---5---5-|
B|-7-7---6-6---5--|-(5)---5-5---5----5-|-7-7---6-6----5---|-(5)---5-5---5---5-|
G|-8-8---7-7---6--|-(6)---6-6---6----6-|-8-8---7-7----6---|-(6)---6-6---6---6-|
D|-9-9---8-8---7--|-(7)---7-7---7----7-|-9-9---8-8----7---|-(7)---7-7---7---7-|
A|-9-9---8-8---7--|-(7)---7-7---7----7-|-9-9---8-8----7---|-(7)---7-7---7---7-|
E|-7-7---6-6---5--|-(5)---5-5---5----5-|-7-7---6-6----5---|-(5)---5-5---5---5-|
 | 
 | Electric
e|---11----12----11-|---11----12----11-|---11----12----11-|---11----12----11-|
B|-12----10--10-----|-10----10--10-----|-12----10--10-----|-10----10--10-----|
G|-----11------11---|-----11------11---|-----11------11---|-----11------11---|
D|------------------|------------------|------------------|------------------|
A|------------------|------------------|------------------|------------------|
E|------------------|------------------|------------------|------------------|

   Acoustic continued
e|-7-7---6-6---5--|-(5)---5-------4--4-|-2---2-----2---2-|-(2)-----2-2-2-2-|
B|-7-7---6-6---5--|-(5)---5-------4--4-|-2---2-----2---2-|-(2)-----2-2-2-2-|
G|-8-8---7-7---6--|-(6)---6-------5--5-|-3---3-----3---3-|-(3)-----3-3-3-3-|
D|-9-9---8-8---7--|-(7)---7-------6--6-|-4---4-----4---4-|-(4)-----4-4-4-4-|
A|-9-9---8-8---7--|-(7)---7-------6--6-|-4---4-----4---4-|-(4)-----4-4-4-4-|
E|-7-7---6-6---5--|-(5)---5-------4--4-|-2---2-----2---2-|-(2)-----2-2-2-2-|
 | 
 | Electric
e|---11----12----11-|---11----12----11-|---6-----7-----6-|---6-----7-----6-|
B|-12----10--10-----|-10----10--10-----|-5-----7---5-----|-7-----7---5-----|
G|-----11------11---|-----11------11---|-----6-------6---|-----6-------6---|
D|------------------|------------------|-----------------|-----------------|
A|------------------|------------------|-----------------|-----------------|
E|------------------|------------------|-----------------|-----------------|

play "Verse Riff 1 Variation" from earlier, then Electric 2 starts solo:


Solo - Electric 2
e|---------------|-------------------|-----------------|---------------------|
B|---------------|-------------------|-----------------|---------------------|
G|---------------|-------------------|-----------------|---------------------|
D|-2-------------|-2-----------------|-----------------|-----------------2---|
A|-2---2-------2-|-----------2---2-4-|-----------------|-0--------33---3---3-|
E|-------4-0-4---|-----0-2-4---4-----|-3-----3-2-----2-|-----2--3----3-------|

e|---------------|-------------------|-----------------|-----------------|-----------------|
B|---------------|-------------------|-----------------|-----------------|-----------------|
G|---------------|-------------------|-----------------|-----------------|-----------------|
D|-2-------------|-2-----------------|-0---------------|-----------------|-1---------------|
A|-2---2-------2-|-----------2---2-4-|-----4-2-4-2-0---|-2---0-----------|---2-------------|
E|-------4-0-4---|-----0-2-4---4-----|-----------------|---------3-2-3-2-|-----2-----------|

Last bar of solo overlaps with Chorus (played 1x)

After Chorus, play Break again

Play Intro 

Play "Verse Riff 1 variation" as song fades and ends.




Key:
| /  slide up
| \  slide down
| ~  vibrato
| b  bend (bends with vibrato bar indicated)
| r  release bend
| h  hammer-on
=============================================

            
            
Suggest correction
Creating personal tab
Creating personal tab
You can edit any tab online and save it as your Personal.

You can edit, replace or remove any tab part or add personal notes – all changes will be seen only by you.

Personal tabs can be accessed anytime from any device, even offline.
Learn more »
Give kudos to tab author, rate the tab!
1 2 3 4 5
comments
print report bad tab
1 comment total.
+1 reply
chronic_stp 351 Jun 25, 2009 12:32 PM

wow great job on the solo, I believe Dean plays a 6 string bass on that part

guest
You may want to rate the tab now too:
select rating
Wanna post a correction for this tab? Suggest correction