Oops, an error
Loading. Please wait.

Kitchenware And Candybars bass

version 1
version 1

Whole song

Interactive

1,364 views 1 this week
1 commentread comment
1 2 3 4 5
1 last vote to show rating
add to favorites
×
Save as Personal and add changes to this tab that will be seen only by you. Learn more ›
×
You can save this tab as Personal to edit and correct it or add notes. All changes will be seen only by you. Learn more »
launch autoscroll
font size
0
reset
guitar tuner
edit
Autoscroll
slow
fast
+/-
esc
set tempo
stop
Author
Difficulty
This is the last song on the album Purple by the Stone Temple Pilots
No bass for about the first minute

intro/outro/chorus
G--------------------------------------------|
D--------------------------------------------|
A--------------------------------------------|
E-3~---3-2-5-3~-3-2-5-3~---3-2-5-2~-3-2-5-3~-|

Verses
G-------------------|
D----55----55----4~-|
A-------------------|
E-xx----xx----xx----|

Interlude 1 (just follow the strings)
G---------------------|---------|
D---------------------|---------|
A---------------------|---------|
E-3-53-3-53-3-53-3-53-|-5-3-2-3-|

Interlude 2
G-------------------|------------|
D-------------------|------------|
A-------------------|------------|
E-XX-33-XX-33-XX-2~-|-2-3-5~-232-|

That's it, any questions or corrections let me know.
You can contact me at CroMag523@aim.com or on my Ultimate Guitar profile.
Thanks, hope this helps.

            
            
Suggest correction
Creating personal tab
Creating personal tab
You can edit any tab online and save it as your Personal.

You can edit, replace or remove any tab part or add personal notes – all changes will be seen only by you.

Personal tabs can be accessed anytime from any device, even offline.
Learn more »
Give kudos to tab author, rate the tab!
1 2 3 4 5
comments
print report bad tab
1 comment total.
0 reply
griznat 11 Jul 16, 2015 04:19 PM

pretty accurate tab however it sounds to me that the intro/outro/chorus part sounds more like G--------------------------------
D--------------------------------
A----------5-3~------------------
E-3~---3-2-----------------------

guest
You may want to rate the tab now too:
select rating
Wanna post a correction for this tab? Suggest correction