Oops, an error
Loading. Please wait.

Kitchenware And Candybars tab

version 2
version 2

Whole song

Interactive

13,859 views 15 this week
2 commentsread comments
1 2 3 4 5
x 17
add to favorites
×
Save as Personal and add changes to this tab that will be seen only by you. Learn more ›
×
You can save this tab as Personal to edit and correct it or add notes. All changes will be seen only by you. Learn more »
launch autoscroll
font size
0
reset
how to read this tab
guitar tuner
edit
Autoscroll
slow
fast
+/-
esc
set tempo
stop
Author
Stone Temple Pilots - "Kitchenware & Candybars"
From 'Purple' EP
tabbed by jjhand
Standard Tuning


Riff 1
e|---------------------------|
B|---------------------------|
G|-----0-0-------0-0-------0-|
D|-----5-5-------5-5-------4-|
A|---------------------------|
E|-0-0-------0-0-------0-0---|

Acoustic Plays riff 1 for Intro & Verse 1 

Pre-Chorus Variation
e|----------------------|
B|----------------------|
G|-----0-0-------0-0--0-|
D|-----5-5-------5-5--4-|
A|----------------------|
E|-0-0-------0-0--------|


Chorus (*Light* Distortion here)
   * upstroke chord
e|-0-------0---------------|-0------0---------------|-0------0---------------|-0------0-----------|
B|--1------1-------------3-|-1------1-------------3-|-1------1-------------3-|-1------1-----------|
G|---0-----0-------------2-|-0----0-0-------------2-|-0----0-0-------------2-|-0----0-0-----------|
D|----2----2----0--0--x--0-|-2----2-2----0--0--x--0-|-2----2-2----0--0--x--0-|-2----2-2----0--0-0-|
A|----3----3----2--0--x--0-|-3----3-3----2--0--x--0-|-3----3-3----2--0--x--0-|-3----3-3----2--0-2\|
E|--------------3--2--x----|-------------3--2--x----|-------------3--2--x----|-------------3--2-3\|


Verse 2, Pre-Chorus - Same as Verse 1, but with Electric Guitar


(1:34) Acoustic returns in background:
 
Acoustic Riff 2 (played similarly 4x)
e|-------------------------------------|
B|--5-0---0---5---3---3p0-----0-5---0--|
G|------2---2---2---2-----2-------2----|
D|-------------------------------------|
A|-------------------------------------|
E|-------------------------------------|

Chorus 2, same as Before


Breakdown (2:08) - play 4x       ending (after repeats)
E|--------------------------|   |--------------|
B|--------------------------|   |--------------|
G|--2--2--2--2--------------|   |--------------|
D|--2--2--2--2--------------|   |--------------|
A|--0--0--0--0--2----0----2-|   |-3------------|
E|--------------3----2----0-|   |-1------------|


Verse 3 - Same as Verse 2 with Electric Guitar

Chorus 3 - Same as before

Heavy Distortion Riff (3:28) - Second Guitar plays Riff 1 along with this riff
e|---------------------------|---------------------------|---------------------------|
B|---------------------------|---------------------------|---------------------------|
G|-----0-0-------0-0-------0-|-0---0-0-------0-0-------0-|-0---0-0-------0-0-------0-|
D|-----5-5-------5-5-------5-|-5---5-5-------5-5-------5-|-5---5-5-------5-5-------5-|
A|---------------------------|---------------------------|---------------------------|
E|-0-0-------0-0-------0-0---|-----------0-0-------0-0---|-----------0-0-------0-0---|


e|------------------------|
B|------------------------|
G|-0---0-0----------------|
D|-5---5-5---2-0-0-----0--|
A|-----------2-0-2-----0--|
E|-----------0-2-3-----2--| Solo starts during the last chord here


Solo (with wah filter)                                        PH****************     semi harm
e|--------------------------|-------------------------------|------------------------------|
B|--------------------------|----8-10-10b12-8~--------------|------------------------------|
G|---------------9-9b11~----|--9----------------------------|------------------------------|
D|------------x-------------|--------------------0----------|------------------------------|
A|---5---5-7\-x-------------|------------------0---7b9r7-5\-|------------------------------|
E|-7---7--------------------|-------------------------------|-5---5------5-----5-----3-5-3~|

  PH*************
e|----------------------|
B|----------------------|
G|----------------------|
D|-------2-4bbbb6-------|
A|----------------------|
E|-0-3b4----------------|


Play Final Chorus:
e|0----0---------------|-0------0---------------|-0------0---------------|-0------0-------------|--
B|1----1-------------3-|-1------1-------------3-|-1------1-------------3-|-1------1-------------|--
G|0----0-------------2-|-0----0-0-------------2-|-0----0-0-------------2-|-0----0-0-------------|--
D|2----2----0--0--x--0-|-2----2-2----0--0--x--0-|-2----2-2----0--0--x--0-|-2----2-2----0--0--0--|-3
A|3----3----2--0--x--0-|-3----3-3----2--0--x--0-|-3----3-3----2--0--x--0-|-3----3-3----0--2--0--|-3
E|----------3--2--x----|-------------3--2--x----|-------------3--2--x----|-------------2--3--2--|-1

            
            
Suggest correction
Creating personal tab
Creating personal tab
You can edit any tab online and save it as your Personal.

You can edit, replace or remove any tab part or add personal notes – all changes will be seen only by you.

Personal tabs can be accessed anytime from any device, even offline.
Learn more »
comments
print report bad tab
2 comments total.
+2 reply
JimBonJovi 851 Dec 01, 2008 08:08 AM

Superb yet again.

+2 reply
grungemaniacman 10 Jul 22, 2010 09:11 PM

very good.

guest
You may want to rate the tab now too:
select rating
Wanna post a correction for this tab? Suggest correction