Oops, an error
Loading. Please wait.

Mc5 bass

version 1
version 1

Whole song

Interactive

380 views 3 this week
no commentswrite comment
1 2 3 4 5
1 last vote to show rating
add to favorites
×
Save as Personal and add changes to this tab that will be seen only by you. Learn more ›
×
You can save this tab as Personal to edit and correct it or add notes. All changes will be seen only by you. Learn more »
launch autoscroll
font size
0
reset
guitar tuner
edit
Autoscroll
slow
fast
+/-
esc
set tempo
stop
Author
Stone Temple Pilots - 'MC5'
Album: 'No. 4'
Tabbed by jjhand
Standard Tuning - EADG

This song has a good beat and few riff changes. Easy tab to play too.

Intro ( after drums)         play 3x
G|-----------------------|   -----------------------------|
D|------------5qb---5qb--|   -5-5---5qb-7------5qb---5qb--|
A|-rest--0-------7-----7-|   -----7--------0-------7-----7|
E|-----------------------|   -----------------------------|
qb - quarter bend


Verse Riff (play 4x)
G|--------------------------------|
D|--0-0---0-2---------------------|
A|------2-------------------------|
E|-------------0----3qb-0---3qb-0-|


(0:38) - Play Intro again 4x


(0:51) - Verse Riff again 4x


Break (1:03) - Bass answers the guitar notes here
G|---------------------|  then  |----------------------------|
D|---------------------|        |----------------------------|
A|-rest------0---------|        |-------3----5----6----5--3--|
E|---------------------|        |--5-------------------------|  play this all 2x through


Play: Intro 4x
      Verse Riff 4x
      Intro 4x


(1:58) Key Change to F#
G|---------------------------|
D|--2-2---2-4------2---2-2---|
A|------4------------4-----4-|
E|------------2--------------|

(2:10) Play Break section again (all 8 bars)


Ending (w/ misc. string noises & trem bar dive possibly?)
G|---------------------------|
D|---------------------------|
A|---------------------------|
E|--5------------------------|



Key:
| /  slide up
| \  slide down
| ~  vibrato
| b  bend 
| r  release bend
| qb quarter bend (slightly increase pitch but not to next fret)
=============================================

            
            
Suggest correction
Creating personal tab
Creating personal tab
You can edit any tab online and save it as your Personal.

You can edit, replace or remove any tab part or add personal notes – all changes will be seen only by you.

Personal tabs can be accessed anytime from any device, even offline.
Learn more »
Give kudos to tab author, rate the tab!
1 2 3 4 5
comments
print report bad tab
guest
You may want to rate the tab now too:
select rating
Wanna post a correction for this tab? Suggest correction