Oops, an error
Loading. Please wait.

Meatplow tab

version 4
version 4

Whole song

Interactive

40 views 1 this week
no commentswrite comment
1 2 3 4 5
3 more votes to show rating
add to favorites
×
Save as Personal and add changes to this tab that will be seen only by you. Learn more ›
×
You can save this tab as Personal to edit and correct it or add notes. All changes will be seen only by you. Learn more »
launch autoscroll
font size
0
reset
how to read this tab
guitar tuner
edit
Autoscroll
slow
fast
+/-
esc
set tempo
stop
Author
Difficulty
About this tab version
Meatplow as played by Stone Temple Pilots on the 1994 album Purple. Was this info helpful? Yes No
#----------------------------------PLEASE NOTE---------------------------------#
#This file is the author's own work and represents their interpretation of the #
#song. You may only use this file for private study, scholarship, or research. #
#------------------------------------------------------------------------------#

 Stone Temple Pilots- Meatplow 
 Album- Purple 1994
 Standard Tuning

 (Intro/Verse) 
E|---------------||---------------------------------------||----|
B|---------------||o-------------------------------------o||----|
G|---------2-(5)-||--------------------------------2-(5)--||----|
D|---------2--5--||--4-4-4-4-4-x-x-4-4-4-4---------2--5---||----|
A|--2------0--3--||o-4-4-4-4-4-x-x-4-4-4-4---2-----0--3--o||----|
E|--0--3b-----3--||--2-2-2-0-2-x-x-2-0-2-2---0-3b-----3---||----|

 (Bridge)
  Listen for strumming, repeat only the first two chords before Chorus part
E||--0-0-0-0-0-0-0/-0-0-0-0-0-0-0-|-----1-1-1-1-1-----1-1-1-1-1--||----|
B||o-0-0-0-0-0-0-0/-0-0-0-0-0-0-0-|-----1-1-1-1-1-----1-1-1-1-1-o||----|
G||--4-4-4-4-4-4-4/-5-5-5-5-5-5-5-|-----4-4-4-4-4-----4-4-4-4-4--||----|
D||--4-4-4-4-4-4-4/-5-5-5-5-5-5-5-|-x-x-3-3-3-3-3-x-x-3-3-3-3-3--||----|
A||o-2-2-2-2-2-2-2/-3-3-3-3-3-3-3-|-x-x-3-3-3-3-3-x-x-3-3-3-3-3-o||----|
E||-------------------------------|-x-x-1-1-1-1-1-x-x-1-1-1-1-1--||----|

 (Chorus)
E|-----------------------------------------------------------------|
B|-----------------------------------------------------------------|
G|-----------------------------------------------------------------|
D|-7-7-7-7-7--5-7--7-7-7-7--3-3--5-5-5-5-5--3-3-x-x-x-x-5-5-5-7----|
A|-5-7-7-7-7--3-5--7-7-7-7--3-1--5-5-5-5-5--3-1-x-x-x-x-3-5-3-5----|
E|-5-5-5-5-5--3-5--5-5-5-5--1-1--3-3-3-3-3--1-1-x-x-x-x-3-3-3-5----|

 (End)
E|-1--1----|
B|-1--1----|
G|-5--4----|
D|-4--3----|
A|-4--3----|
E|-2--1----|

(Lyrics)
Fine place for a day full of breakdowns
Takes more than a meltdown to show us how
Throw a tack on the road stop the meat plow
Got a bullet but it ain't mine

They got these pictures of everything
To break us down, yeah to break me down
They make us hate and we make it bleed

But I got a lover
And she shows me how
To understand it, yeah to understand
I got a brother and well he shows me how,
To make amends, yeah to make amends with it

Take a break from the mousetrap we call home
Takes more than a message to make me smile
I can feel when she kisses me sleeping
But not when the news is on

They got these pictures of everything
To break us down, yeah to break me down
They make us hate and we make it bleed

But I got a lover
And she shows me how
To understand it, yeah to understand
I got a brother and well he shows me how,
To make amends, yeah to make amends with it

They got these pictures of everything
To break us down, yeah to break us down
They make us hate and we make it bleed

But I got a lover and she shows me how
To understand it, yeah to understand
I got a brother and well he shows me how
To make amends, yeah to make amends with it

Misc Legend
-----------
 |  - bar
||  - double bar
||o - repeat start
o|| - repeat end
*|  - double bar (ending)
 :  - bar (freetime)
 $  - Segno
 &  - Coda

************************************

| (n)  Ghost note
| x    Dead note
| b    Bend
| /    Slide up
 

************************************

            
            
Suggest correction
Creating personal tab
Creating personal tab
You can edit any tab online and save it as your Personal.

You can edit, replace or remove any tab part or add personal notes – all changes will be seen only by you.

Personal tabs can be accessed anytime from any device, even offline.
Learn more »
Give kudos to tab author, rate the tab!
1 2 3 4 5
comments
print report bad tab
guest
You may want to rate the tab now too:
select rating
Wanna post a correction for this tab? Suggest correction