Oops, an error
Loading. Please wait.

Piece Of Pie tab

version 2
version 2

Whole song

Interactive

11,285 views 45 this week
1 commentread comment
1 2 3 4 5
x 4
add to favorites
×
Save as Personal and add changes to this tab that will be seen only by you. Learn more ›
×
You can save this tab as Personal to edit and correct it or add notes. All changes will be seen only by you. Learn more »
launch autoscroll
font size
0
reset
how to read this tab
guitar tuner
backing track
0:00
0:00
edit
Autoscroll
slow
fast
+/-
esc
set tempo
stop
Stone Temple Pilots - 'Piece of Pie'
From 'Core' Album (one of my all-time favorites!)

Drop D Tuning (DADGBE), set amps for heavy distortion
tabbed by jjhand, with some of the riffs from 'AIC STP 10' 


This song is awesome, and the bridge is all jazz chords, making it very 
cool sounding. The guitar was multi-tracked on the CD, so I wrote out the
rhythm and Lead parts. Enjoy and rate! 


[Intro]
  
(2 Guitars): Rhythm holds the last D chord, Lead plays high strings
e|------------------0___------|---------------------------|
B|------------------3___-3----|---------------------------|
G|------------------2----2----|------------------2---1b2--|
D|-5-3-0-2-3-3-0----0----0----|-5-3-0-2-3-3-0----0---0----|
A|-5-3-0-2-3-3-0--------------|-5-3-0-2-3-3-0-------------|
D|-5-3-0-2-3-3-0--------------|-5-3-0-2-3-3-0-------------|

e|----------------------------|------------------0___-----|
B|----------------------------|------------------3___3----|
G|------------------2----1b2--|------------------2---2----|
D|-5-3-0-2-3-3-0----0----0----|-5-3-0-2-3-3-0----0---0----|
A|-5-3-0-2-3-3-0--------------|-5-3-0-2-3-3-0-------------|
D|-5-3-0-2-3-3-0--------------|-5-3-0-2-3-3-0-------------|


[Pre-verse]
 
  play 4x
e|---------------------------------|
B|---------------------------------|
G|---------------------------------|
D|-5-3-0-3-0-0-5-3-0-3-0-0-0---0---|
A|-5-3-0-3-0-0-5-3-0-3-0-0-0---0---|
D|-5-3-0-3-0-0-5-3-0-3-0-0-0---0---|


[Verse]

  Accented PM notes are indicated with ^
e|-----------------------------0---|
B|-----------------------------3---|
G|-------------------------2---2---| play 8x
D|-5-3-0-3-0-0-5-3-0-3-0-0-0---0---|
A|-5-3-0-3-0-0-5-3-0-3-0-0-0---0---|
D|-5-3-0-3-0-0-5-3-0-3-0-0-0---0---|
   ^ ^ ^ ^ ^ ^ ^ ^ ^ ^ ^ ^ 


[Pre-Chorus]

e|-----------------------------|---------------------0--|
B|-----------------------------|---------------------3--|
G|-----------------------------|------------------2--2--|
D|---5-3-0-2-3----5-3-0-2-3----|---5-3-0-2-3-3-0--0-----|
A|---5-3-0-2-3----5-3-0-2-3----|---5-3-0-2-3-3-0--------|
D|---5-3-0-2-3----5-3-0-2-3----|---5-3-0-2-3-3-0--------|
             "Yeah"        "Yeah"


[Chorus]

  play 4x
e|------------------------------|-------------------------------|
B|------------------------------|-------------------------------|
G|------------------------------|-------------------------------|
D|---------5/7-----------0-2--0-|---------5/7---3---4-----5/7---|
A|-3h5-0-0-3/5---0-----0-2-3--2-|-3h5-0-0-3/5---5---5-5---3/5---|
D|-3h5-0-0-------0---0----------|-3h5-0-0---------------0-------|

1.  "Staring me down              wearing a crown            of"     
2.  "Apathy"
3.  "I'm standing around          dressed like a clown"
4.  "Don't know my name you know where to find me"  


[Pre-Verse 2]

e|----------------------------|----------------------0----|
B|----------------------------|----------------------3~---|
G|------------------2----1b2~-|------------------2---2~---|
D|-5-3-0-2-3-3-0----0----0----|-5-3-0-2-3-3-0----0---0----|
A|-5-3-0-2-3-3-0--------------|-5-3-0-2-3-3-0-------------|
D|-5-3-0-2-3-3-0--------------|-5-3-0-2-3-3-0-------------|



Play verse riff, pre-chorus, and chorus again



[Bridge]

 Note that bass notes are fast but rhythm guitar has slower arpeggio riff

Rhythm Guitar (let notes ring):                        Ending 1:
   F       Am/E      Eb6     D7        Bb9              C9    D  
e|-----------------|-----------------|----------------|-----------------|
B|-----------------|-----------------|-------1---1----|-3-----3---------|
G|-----5-------5---|-----5-------5---|-----1---1---1--|-3-----2---------|
D|---7-------7-----|---5-------4-----|---0------------|-2-----0---------|
A|-8-------7-------|-6-------5-------|-1--------------|-3-----0---------|
D|-----------------|-----------------|----------------|-------0---------|
 |
 | Lead (with wah)
e|-----------------|-----------------|----------------|-----------------|
B|-----------------|-----------------|-7---6---4------|-----------------|
G|-2/7~~-----------|-/10~~-----------|--------------3-|-/7\--/7~~~------|
D|-----------------|-----------------|----------------|-----------------|
A|-----------------|-----------------|----------------|-----------------|
D|-----------------|-----------------|----------------|-----------------|


repeat bridge, then use this ending before solo:
e|-----------------|
B|-3---------------|
G|-3---------------|
D|-2---------------|
A|-3---------------|
D|-----------------|
 |
 | Lead (with wah and feedback)
e|-----------------|
B|-----------------|
G|-3~~~~~~/////22--|
D|-----------------|
A|-----------------|
D|-----------------|



[Solo]

e|--------------------|------------------------------|------------------------|
B|--------------------|------------------------------|------------------------|
G|-14-14-14b17-----\x-|-10~~------10-10--------------|------------------------|
D|--------------------|-----12-10-------12__\----3---|-3---3-5-5b6--3~~~------|
A|--------------------|------------------------5---5-|---5-----------------5--|
D|--------------------|------------------------------|------------------------|

e|----------------------|-17b20~~~~---b20--b20~~~|
B|-------------------15-|------------------------|
G|----------------------|------------------------|
D|----------------------|------------------------|
A|----------------------|------------------------|
D|-3b5r3b5~~~~~~~-------|------------------------|

e|-17b20-17-16-15----15-15b17r15----15-13/14----------|
B|----------------18-------------18----------15----13-|
G|-----------------------------------------------14---|
D|----------------------------------------------------|
A|----------------------------------------------------|
D|----------------------------------------------------|

e|--------------------10-------------------|-----------------------------|
B|-13b15__r13b15~--------10-13-------------|-----------------------------|
G|---------------12b14---------12-10----12-|-10--------------------------|
D|-----------------------------------12----|---12-10---------------------|
A|-----------------------------------------|--------12-11-10-8-10b11~~\5-|
D|-----------------------------------------|-----------------------------|



[Last Pre-Chorus]

e|-----------------------------|---------------------0--|
B|-----------------------------|---------------------3--|
G|-----------------------------|------------------2--2--|
D|---5-3-0-2-3----5-3-0-2-3----|---5-3-0-2-3-3-0--0-----|
A|---5-3-0-2-3----5-3-0-2-3----|---5-3-0-2-3-3-0--------|
D|---5-3-0-2-3----5-3-0-2-3----|---5-3-0-2-3-3-0--------|
             "Yeah"        "Yeah"


[Final Chorus]

  play 8x, lyrics below
e|------------------------------|-------------------------------|
B|------------------------------|-------------------------------|
G|------------------------------|-------------------------------|
D|---------5/7-----------0-2--0-|---------5/7---3---4-----5/7---|
A|-3h5-0-0-3/5---0-----0-2-3--2-|-3h5-0-0-3/5---5---5-5---3/5---|
D|-3h5-0-0-------0---0----------|-3h5-0-0---------------0-------|

1.  "Staring me down              wearing a crown            of"     
2.  "Apathy"
3.  "I'm standing around          dressed like a clown"
4.  "Don't know my name you know where to find me"  
5.  "I killed the manchild        I killed the midwife"
6.  "I drank the water I stand alone"
7.  "I broke the breadline        I walked the front line"
8.  "Don't know my name you know where to find me"  



[Outro Solo]

   Starts during 2nd half of 4th line in chorus
e|-10---10-----10-----10-----|--------------------------------------------------|
B|--------13b14--13b14---10~-|-(10\)--------------------------------------------|
G|---------------------------|--------------------12b14r12b14--12-12b14r12-10---|
D|---------------------------|-----------------------------------------------12-|
A|---------------------------|--------------------------------------------------|
D|---------------------------|--------------------------------------------------|
 "find me"                       "I killed the manchild"

e|----------------------------------------|--------------------------|
B|----------------------------------------|--------------------------|
G|----------------------------------------|-7~~~\--------------------|
D|-(12~)----------------5b6r5b6r5---5---5-|--------------------------|
A|--------------------------------8---8---|--------------------------|
D|----------------------------------------|--------------------------|
     "I had the midwife"                  "I drank the water, I stand"

e|---------------------15b17-|-13~~\--------------------------------------|
B|-------13b15r13~~~---------|--------------------------------------------|
G|--12b14--------------------|--------------------------12b14r12-10-12-10-|
D|---------------------------|--------------------------------------------|
A|---------------------------|--------------------------------------------|
D|---------------------------|--------------------------------------------|
 "alone"                          "I broke the breadline"

e|-------------------13-13---13--13-|-10----------------|----------------------|
B|-------------------13-13---13--13-|-10----------------|-13b15-13b15-13b15~~~~|
G|-------10-10~~--------------------|---10-----------10-|----------------------|
D|-12-------------------------------|-----12~~~---/12---|----------------------|
A|----12----------------------------|-------------------|----------------------|
D|----------------------------------|-------------------|----------------------|
   "I walked the frontline"           "Dont know my name
                                          You know where to find me"


To end song, Play 'Break' riff with 'Ending 1' four times. 
The lead guitar plays some added slides here and there, so just be creative! 


key:
| /  slide up
| \  slide down
| h  hammer-on
| p  pull-off
| ~  vibrato
| v  use whammy bar on vibrato, or divebomb note to lower note indicated
| x  Mute note
| b  bend (bends with vibrato bar indicated)
| r  release bend

            
            
Suggest correction
Creating personal tab
Creating personal tab
You can edit any tab online and save it as your Personal.

You can edit, replace or remove any tab part or add personal notes – all changes will be seen only by you.

Personal tabs can be accessed anytime from any device, even offline.
Learn more »
comments
print report bad tab
1 comment total.
0 reply
JimBonJovi 851 Feb 27, 2009 02:30 PM

Finally. I believe I have been playing the intro/verse and pre-chorus riffs correctly but the chorus and bridge I had problems with but thank goodness for this. Superb tab jjhand.

guest
You may want to rate the tab now too:
select rating
Wanna post a correction for this tab? Suggest correction