Oops, an error
Loading. Please wait.
We have an official Plush tab made by UG professional guitarists. Check out the tab »
×

Plush bass

1,657 views 45 this week
no commentswrite comment
1 2 3 4 5
x 8
add to favorites
×
Save as Personal and add changes to this tab that will be seen only by you. Learn more ›
×
You can save this tab as Personal to edit and correct it or add notes. All changes will be seen only by you. Learn more »
launch autoscroll
font size
0
reset
guitar tuner
backing track
0:00
0:00
edit
Autoscroll
slow
fast
+/-
esc
set tempo
stop
Author
Difficulty
“PLUSH”
STONE TEMPLE PILOTS


Tuning: E-Standard


INTRO RIFF

G|----------------------|-------------------------------|
D|----------------------|-------------------------------|
A|------1----1-2-3-3----|---2-3-4--5----1----1-2-3-3----|
E|-3-3-----3----------3-|-3----------3-----3----------3-|

G|-------------------------------|-------------------------------|
D|-------------------------------|-------------------------------|
A|---2-3-4--5----1----1-2-3-3----|---2-3-4--5----1----1-2-3-3----|
E|-3----------3-----3----------3-|-3----------3-----3----------3-|


VERSE 1

(And I feel that time's a wasted go...)
G|------------------------------------------------------|
D|--------5-4-----2-3-3---3-2---------------------------|
A|------------5---------------3---5-6-6-----6--6/8--8-8-|
E|--3-3-----------------------------------6-------------|

(...tomorrow, and I see...)
G|--------------------------------------------------------|
D|--------5-4-----2-3-3---3-2----------------------3--3-3-|
A|------------5---------------3---5-6-6-----6-6--6--------|
E|--3-3-----------------------------------6---------------|


BRIDGE

(And I feel it...)
G|--------------------------|----------------------------|
D|----------------------3-4-|----------------------------|
A|-5--5-5-3---2---3---5-----|-5--5-5-3---2--5------2-3-4-|
E|--------------------------|-----------------3--5-------|

(And I feel it...)
G|--------------------------|-------------------------|
D|----------------------3-4-|-------------------------|
A|-5--5-5-3---2---3---5-----|-5--5-5-3---2--3---5-5-5-|
E|--------------------------|-------------------------|


PRE-CHORUS

(Where you goin' for tomorrow)
G|-------------------------------|-------------------|
D|----------------------10-8-7---|-------------------|
A|-6--6-----6-6----6-10--------8-|---8-8----10-8-7-7-|
E|--------6------6---------------|-8------8----------|

(Where you goin' with the mask I found)
G|-------------------------------|------------------|
D|----------------------10-8-7---|------------------|
A|-6--6-----6-6----6-10--------8-|---8-8----8-10--8-|
E|--------6------6---------------|-8------8---------|

(And I feel and I feel...)
G|-------------------------------|----------------|
D|----------------------10-8-7---|----------------|
A|-6--6-----6-6----6-10--------8-|---8-8----8-8-7-|
E|--------6------6---------------|-8------8-------|

(Will she smell alone)
G|-------------------------------|-----------------|
D|----------------------10-8-7---|-----------------|
A|-6--6-----6-6----6-10--------8-|---8-8----8-8----|
E|--------6------6---------------|-8------8-----8\-|


INTRO RIFF (FIRST HALF)

G|----------------------|-------------------------------|
D|----------------------|-------------------------------|
A|------1----1-2-3-3----|---2-3-4--5----1----1-2-3-3----|
E|-3-3-----3----------3-|-3----------3-----3----------3-|


VERSE 2

(And I feel so much depends...)
G|--------------------------------------------------------|
D|--------5-4-----2-3-3---3-2----------------------3--3-3-|
A|------------5---------------3---5-6-6-----6-6--6--------|
E|--3-3-----------------------------------6---------------|

(So is it rainin' in your bedroom...)
G|---------------------------------------------------------|
D|--------5-4-----2-3-3---3-2----------------------3-3-3-3-|
A|------------5---------------3---5-6-6-----6-6--6---------|
E|--3-3-----------------------------------6----------------|


BRIDGE

(And I feel it...)
G|--------------------------|----------------------------|
D|----------------------3-4-|----------------------------|
A|-5--5-5-3---2---3---5-----|-5--5-5-3---2--5------2-3-4-|
E|--------------------------|-----------------3--5-------|

(And she feels it...)
G|--------------------------|-------------------------|
D|----------------------3-4-|-------------------------|
A|-5--5-5-3---2---3---5-----|-5--5-5-3---2--3---5-5-5-|
E|--------------------------|-------------------------|


PRE-CHORUS

(Where you goin' for tomorrow)
G|-------------------------------|----------------|
D|----------------------10-8-7---|----------------|
A|-6--6-----6-6----6-10--------8-|---8-8----8-8-7-|
E|--------6------6---------------|-8------8-------|

(Where you goin' with the mask I found)
G|-------------------------------|------------------|
D|----------------------10-8-7---|------------------|
A|-6--6-----6-6----6-10--------8-|---8-8----8-10--8-|
E|--------6------6---------------|-8------8---------|

(And I feel and I feel...)
G|-------------------------------|----------------|
D|----------------------10-8-7---|----------------|
A|-6--6-----6-6----6-10--------8-|---8-8----8-8-7-|
E|--------6------6---------------|-8------8-------|

(Will she smell alone)
G|-------------------------------|------------------|
D|----------------------10-8-7---|------------------|
A|-6--6-----6-6----6-10--------8-|---8-8---8-8-8----|
E|--------6------6---------------|-8-----8-------8\-|


CHORUS

(When the dogs do find her...)
G|-----------------------------------------------------------------|
D|-----------------------------------------------------------------|
A|----------------------------------------------5-6-6-6-6-5-5-5-5\-|
E|-3-3-3-3-3-X-3-3-1-1-1-X-X-1--1-0-0-0-0-0-X-X--------------------|

(...tomorrow, she find it...)
G|-----------------------------------------------------------------|
D|-----------------------------------------------------------------|
A|----------------------------------------------5-6-6-6-6-5-5-5-5\-|
E|-3-3-3-3-3-X-X-3-1-1-1-X-X-1--1-0-0-0-0-0-X-X--------------------|

(When the dogs do find her...)
G|-----------------------------------------------------------------|
D|-----------------------------------------------------------------|
A|----------------------------------------------5-6-6-6-6-5-5-5-5\-|
E|-3-3-3-3-3-X-X-3-1-1-1-X-X-1--1-0-0-0-0-0-X-X--------------------|

(...tomorrow, she find it...)
G|------------------------------------------------------|
D|------------------------------------------------------|
A|----------------------------------------------5-6---5-|
E|-3-3-3-3-3-X-X-3-1-1-1-X-X-1--1-0-0-0-0-0-X-X---------|


INTRO RIFF

G|----------------------|-------------------------------|
D|----------------------|-------------------------------|
A|------1----1-2-3-3----|---2-3-4--5----1----1-2-3-3----|
E|-3-3-----3----------3-|-3----------3-----3----------3-|

G|-------------------------------|-------------------------------|
D|-------------------------------|-------------------------------|
A|---2-3-4--5----1----1-2-3-3----|---2-3-4--5----1----1-2-3-3----|
E|-3----------3-----3----------3-|-3----------3-----3----------3-|


PRE-CHORUS

(Where you goin' for tomorrow)
G|-------------------------------|----------------|
D|----------------------10-8-7---|----------------|
A|-6--6-----6-6----6-10--------8-|---8-8----8-8-7-|
E|--------6------6---------------|-8------8-------|

(Where you goin' with the mask I found)
G|-------------------------------|------------------|
D|----------------------10-8-7---|------------------|
A|-6--6-----6-6----6-10--------8-|---8-8----8-10--8-|
E|--------6------6---------------|-8------8---------|

(And I feel and I feel...)
G|-------------------------------|----------------|
D|----------------------10-8-7---|----------------|
A|-6--6-----6-6----6-10--------8-|---8-8----8-8-7-|
E|--------6------6---------------|-8------8-------|

(Will she smell alone)
G|-------------------------------|------------------|
D|----------------------10-8-7---|------------------|
A|-6--6-----6-6----6-10--------8-|---8-8---8-8-8----|
E|--------6------6---------------|-8-----8-------8\-|


CHORUS

(When the dogs do find her...)
G|-----------------------------------------------------------------|
D|-----------------------------------------------------------------|
A|----------------------------------------------5-6-6-6-6-5-5-5-5\-|
E|-3-3-3-3-3-X-X-3-1-1-1-X-X-1--1-0-0-0-0-0-X-X--------------------|

(...tomorrow, she find it...)
G|-----------------------------------------------------------------|
D|-----------------------------------------------------------------|
A|----------------------------------------------5-6-6-6-6-5-5-5-5\-|
E|-3-3-3-3-3-X-X-3-1-1-1-X-X-1--1-0-0-0-0-0-X-X--------------------|

(When the dogs do find her...)
G|-----------------------------------------------------------------|
D|-----------------------------------------------------------------|
A|----------------------------------------------5-6-6-6-6-5-5-5-5\-|
E|-3-3-3-3-3-X-X-3-1-1-1-X-X-1--1-0-0-0-0-0-X-X--------------------|

(...tomorrow, she find it...)
G|------------------------------------------------------|
D|------------------------------------------------------|
A|----------------------------------------------5-6---5-|
E|-3-3-3-3-3-X-X-3-1-1-1-X-X-1--1-0-0-0-0-0-X-X---------|


INTRO RIFF

(She find it)
G|----------------------|-------------------------------|
D|----------------------|-------------------------------|
A|------1----1-2-3-3----|---2-3-4--5----1----1-2-3-3----|
E|-3-3-----3----------3-|-3----------3-----3----------3-|

(She find it...)
G|-------------------------------|-------------------------------|
D|-------------------------------|-------------------------------|
A|---2-3-4--5----1----1-2-3-3----|---2-3-4--5----1----1-2-3-3----|
E|-3----------3-----3----------3-|-3----------3-----3----------3-|

            
            
Suggest correction
Creating personal tab
Creating personal tab
You can edit any tab online and save it as your Personal.

You can edit, replace or remove any tab part or add personal notes – all changes will be seen only by you.

Personal tabs can be accessed anytime from any device, even offline.
Learn more »
comments
print report bad tab
guest
You may want to rate the tab now too:
select rating
Wanna post a correction for this tab? Suggest correction