Oops, an error
Loading. Please wait.
We have an official Plush tab made by UG professional guitarists. Check out the tab »
×
21,174 views 1 this week
1 commentread comment
1 2 3 4 5
x 8
add to favorites
×
Save as Personal and add changes to this tab that will be seen only by you. Learn more ›
×
You can save this tab as Personal to edit and correct it or add notes. All changes will be seen only by you. Learn more »
launch autoscroll
font size
0
reset
how to read this tab
guitar tuner
backing track
0:00
0:00
edit
Autoscroll
slow
fast
+/-
esc
set tempo
stop
Author
Difficulty
-------------------------------------------------------------------------------
                             Stone Temple Pilots - Plush
-------------------------------------------------------------------------------
Tabbed by: filkove
Email: filkove@gmail.com

Tuning: Standard

I made this tab for new guitarests, its mostly power chords so it's easy to play. 
listen to the song for strumming. 

PS: this is my first tab, tell me what you think.


Intro: 4 times... on the last time hold the last note
e|---3-3---3---3-3-3-3-3---3---3-3-3-3--|
B|---3-3---2---2-2-2-1-1---0---0-0-1-2--|
G|---0-0---3---3-3-3-0-0---0---0-0-0-0--|
D|--------------------------------------|
A|--------------------------------------|
E|--------------------------------------|


Verse 1:
e|-----------------------------------------------------|
B|-----------------------------------------------------|
G|-----------7-7-x-x-7-----------5-5-x-x-5-8-8-x-x-8-8-|
D|-5-5-x-x-5-7-7-x-x-7-3-3-x-x-3-5-5-x-x-5-8-8-x-x-8-8-|
A|-5-5-x-x-5-5-5-x-x-5-3-3-x-x-3-3-3-x-x-3-6-6-x-x-6-6-|
E|-3-3-x-x-3-----------1-1-x-x-1-----------------------|

e|-----------------------------------------------------|
B|-----------------------------------------------------|
G|-----------7-7-x-x-7-----------5-5-x-x-5-8-8-x-x-8-8-|
D|-5-5-x-x-5-7-7-x-x-7-3-3-x-x-3-5-5-x-x-5-8-8-x-x-8-8-|
A|-5-5-x-x-5-5-5-x-x-5-3-3-x-x-3-3-3-x-x-3-6-6-x-x-6-6-|
E|-3-3-x-x-3-----------1-1-x-x-1-----------------------|


Bridge:
e|-----------------------------------------------------|
B|-----------------------------------------------------|
G|-7-7-7-5-5-4-4-5-5-5-5-5-7-7-7-5-5-4-4-5-5-5-5-5-----|
D|-7-7-7-5-5-4-4-5-5-5-5-3-7-7-7-5-5-4-4-5-5-5-5-3-----|
A|-5-5-5-3-3-2-2-3-3-3-3-3-5-5-5-3-3-2-2-3-3-3-3-3-----|
E|-----------------------------------------------------|


Choris:
e|-----------------------------------------------------------------|
B|-----------------------------------------------------------------|
G|-8-8-x-x-8-8-x-x-----------------8-8-x-x-8-8-x-x-----------------|
D|-8-8-x-x-8-8-x-x-3-3-x-x-3-3-x-x-8-8-x-x-8-8-x-x-3-3-x-x-3-3-x-x-|
A|-6-6-x-x-6-6-x-x-3-3-x-x-3-3-x-x-6-6-x-x-6-6-x-x-3-3-x-x-3-3-x-x-|
E|-----------------1-1-x-x-1-1-x-x-----------------1-1-x-x-1-1-x-x-|

e|-----------------------------------------------------------------|
B|-----------------------------------------------------------------|
G|-8-8-x-x-8-8-x-x-----------------8-8-x-x-8-8-x-x-----------------|
D|-8-8-x-x-8-8-x-x-3-3-x-x-3-3-x-x-8-8-x-x-8-8-x-x-3-3-x-x-3-3-x-x-|
A|-6-6-x-x-6-6-x-x-3-3-x-x-3-3-x-x-6-6-x-x-6-6-x-x-3-3-x-x-3-3-x-x-|
E|-----------------1-1-x-x-1-1-x-x-----------------1-1-x-x-1-1-x-x-|


Intro: 4 times... on the last time hold the last note
e|---3-3---3---3-3-3-3-3---3---3-3-3-3--|
B|---3-3---2---2-2-2-1-1---0---0-0-1-2--|
G|---0-0---3---3-3-3-0-0---0---0-0-0-0--|
D|--------------------------------------|
A|--------------------------------------|
E|--------------------------------------|


Verse 2:
e|-----------------------------------------------------|
B|-----------------------------------------------------|
G|-----------7-7-x-x-7-----------5-5-x-x-5-8-8-x-x-8-8-|
D|-5-5-x-x-5-7-7-x-x-7-3-3-x-x-3-5-5-x-x-5-8-8-x-x-8-8-|
A|-5-5-x-x-5-5-5-x-x-5-3-3-x-x-3-3-3-x-x-3-6-6-x-x-6-6-|
E|-3-3-x-x-3-----------1-1-x-x-1-----------------------|

e|-----------------------------------------------------|
B|-----------------------------------------------------|
G|-----------7-7-x-x-7-----------5-5-x-x-5-8-8-x-x-8-8-|
D|-5-5-x-x-5-7-7-x-x-7-3-3-x-x-3-5-5-x-x-5-8-8-x-x-8-8-|
A|-5-5-x-x-5-5-5-x-x-5-3-3-x-x-3-3-3-x-x-3-6-6-x-x-6-6-|
E|-3-3-x-x-3-----------1-1-x-x-1-----------------------|


Bridge:
e|-----------------------------------------------------|
B|-----------------------------------------------------|
G|-7-7-7-5-5-4-4-5-5-5-5-5-7-7-7-5-5-4-4-5-5-5-5-5-----|
D|-7-7-7-5-5-4-4-5-5-5-5-3-7-7-7-5-5-4-4-5-5-5-5-3-----|
A|-5-5-5-3-3-2-2-3-3-3-3-3-5-5-5-3-3-2-2-3-3-3-3-3-----|
E|-----------------------------------------------------|


Choris:
e|-----------------------------------------------------------------|
B|-----------------------------------------------------------------|
G|-8-8-x-x-8-8-x-x-----------------8-8-x-x-8-8-x-x-----------------|
D|-8-8-x-x-8-8-x-x-3-3-x-x-3-3-x-x-8-8-x-x-8-8-x-x-3-3-x-x-3-3-x-x-|
A|-6-6-x-x-6-6-x-x-3-3-x-x-3-3-x-x-6-6-x-x-6-6-x-x-3-3-x-x-3-3-x-x-|
E|-----------------1-1-x-x-1-1-x-x-----------------1-1-x-x-1-1-x-x-|

e|-----------------------------------------------------------------|
B|-----------------------------------------------------------------|
G|-8-8-x-x-8-8-x-x-----------------8-8-x-x-8-8-x-x-----------------|
D|-8-8-x-x-8-8-x-x-3-3-x-x-3-3-x-x-8-8-x-x-8-8-x-x-3-3-x-x-3-3-x-x-|
A|-6-6-x-x-6-6-x-x-3-3-x-x-3-3-x-x-6-6-x-x-6-6-x-x-3-3-x-x-3-3-x-x-|


Bridge 2: 
e|--------------------------------------------------|
B|--------------------------------------------------|
G|---------------------------------8-8-8-8-7-7-7-7--|
D|-5-5-x-x-5-5-3-3-x-x-3-2-2-x-x-2-8-8-8-8-7-7-7-7--|
A|-5-5-x-x-5-5-3-3-x-x-3-2-2-x-x-2-6-6-6-6-5-5-5-5--|
E|-3-3-x-x-3-5-1-1-x-x-1-0-0-x-x-0------------------|

e|--------------------------------------------------|
B|--------------------------------------------------|
G|---------------------------------8-8-8-8-7-7-7-7--|
D|-5-5-x-x-5-5-3-3-x-x-3-2-2-x-x-2-8-8-8-8-7-7-7-7--|
A|-5-5-x-x-5-5-3-3-x-x-3-2-2-x-x-2-6-6-6-6-5-5-5-5--|
E|-3-3-x-x-3-5-1-1-x-x-1-0-0-x-x-0------------------|

e|--------------------------------------------------|
B|--------------------------------------------------|
G|---------------------------------8-8-8-8-7-7-7-7--|
D|-5-5-x-x-5-5-3-3-x-x-3-2-2-x-x-2-8-8-8-8-7-7-7-7--|
A|-5-5-x-x-5-5-3-3-x-x-3-2-2-x-x-2-6-6-6-6-5-5-5-5--|
E|-3-3-x-x-3-5-1-1-x-x-1-0-0-x-x-0------------------|

e|--------------------------------------------------|
B|--------------------------------------------------|
G|---------------------------------8-------7--------|
D|-5-5-x-x-5-5-3-3-x-x-3-2-2-x-x-2-8-------7--------|
A|-5-5-x-x-5-5-3-3-x-x-3-2-2-x-x-2-6-------5--------|
E|-3-3-x-x-3-5-1-1-x-x-1-0-0-x-x-0------------------|


Intro: 2 times... 
e|---3-3---3---3-3-3-3-3---3---3-3-3-3--|
B|---3-3---2---2-2-2-1-1---0---0-0-1-2--|
G|---0-0---3---3-3-3-0-0---0---0-0-0-0--|
D|--------------------------------------|
A|--------------------------------------|
E|--------------------------------------|

Choris:
e|-----------------------------------------------------------------|
B|-----------------------------------------------------------------|
G|-8-8-x-x-8-8-x-x-----------------8-8-x-x-8-8-x-x-----------------|
D|-8-8-x-x-8-8-x-x-3-3-x-x-3-3-x-x-8-8-x-x-8-8-x-x-3-3-x-x-3-3-x-x-|
A|-6-6-x-x-6-6-x-x-3-3-x-x-3-3-x-x-6-6-x-x-6-6-x-x-3-3-x-x-3-3-x-x-|
E|-----------------1-1-x-x-1-1-x-x-----------------1-1-x-x-1-1-x-x-|

e|-----------------------------------------------------------------|
B|-----------------------------------------------------------------|
G|-8-8-x-x-8-8-x-x-----------------8-8-x-x-8-8-x-x-----------------|
D|-8-8-x-x-8-8-x-x-3-3-x-x-3-3-x-x-8-8-x-x-8-8-x-x-3-3-x-x-3-3-x-x-|
A|-6-6-x-x-6-6-x-x-3-3-x-x-3-3-x-x-6-6-x-x-6-6-x-x-3-3-x-x-3-3-x-x-|


Bridge 2: 
e|--------------------------------------------------|
B|--------------------------------------------------|
G|---------------------------------8-8-8-8-7-7-7-7--|
D|-5-5-x-x-5-5-3-3-x-x-3-2-2-x-x-2-8-8-8-8-7-7-7-7--|
A|-5-5-x-x-5-5-3-3-x-x-3-2-2-x-x-2-6-6-6-6-5-5-5-5--|
E|-3-3-x-x-3-5-1-1-x-x-1-0-0-x-x-0------------------|

e|--------------------------------------------------|
B|--------------------------------------------------|
G|---------------------------------8-8-8-8-7-7-7-7--|
D|-5-5-x-x-5-5-3-3-x-x-3-2-2-x-x-2-8-8-8-8-7-7-7-7--|
A|-5-5-x-x-5-5-3-3-x-x-3-2-2-x-x-2-6-6-6-6-5-5-5-5--|
E|-3-3-x-x-3-5-1-1-x-x-1-0-0-x-x-0------------------|

e|--------------------------------------------------|
B|--------------------------------------------------|
G|---------------------------------8-8-8-8-7-7-7-7--|
D|-5-5-x-x-5-5-3-3-x-x-3-2-2-x-x-2-8-8-8-8-7-7-7-7--|
A|-5-5-x-x-5-5-3-3-x-x-3-2-2-x-x-2-6-6-6-6-5-5-5-5--|
E|-3-3-x-x-3-5-1-1-x-x-1-0-0-x-x-0------------------|

e|--------------------------------------------------|
B|--------------------------------------------------|
G|---------------------------------8-------7--------|
D|-5-5-x-x-5-5-3-3-x-x-3-2-2-x-x-2-8-------7--------|
A|-5-5-x-x-5-5-3-3-x-x-3-2-2-x-x-2-6-------5--------|
E|-3-3-x-x-3-5-1-1-x-x-1-0-0-x-x-0------------------|


Intro: 4 times... on the last time hold the last note
e|---3-3---3---3-3-3-3-3---3---3-3-3-3--|
B|---3-3---2---2-2-2-1-1---0---0-0-1-2--|
G|---0-0---3---3-3-3-0-0---0---0-0-0-0--|
D|--------------------------------------|
A|--------------------------------------|
E|--------------------------------------|


| /  slide up
| \  slide down
| h  hammer-on
| p  pull-off
| ~  vibrato
| +  harmonic
| x  Mute note
===============================================================================

            
            
Suggest correction
Creating personal tab
Creating personal tab
You can edit any tab online and save it as your Personal.

You can edit, replace or remove any tab part or add personal notes – all changes will be seen only by you.

Personal tabs can be accessed anytime from any device, even offline.
Learn more »
comments
print report bad tab
1 comment total.
+1 reply
microsonic_java 10 Sep 21, 2008 06:47 AM

Man this one sounds good for beginners that can't the chords down. Good tab bro. 5 Stars.

guest
You may want to rate the tab now too:
select rating
Wanna post a correction for this tab? Suggest correction