Oops, an error
Loading. Please wait.

Pruno tab

2,000 views 6 this week
6 commentsread comments
1 2 3 4 5
x 5
add to favorites
×
Save as Personal and add changes to this tab that will be seen only by you. Learn more ›
×
You can save this tab as Personal to edit and correct it or add notes. All changes will be seen only by you. Learn more »
launch autoscroll
font size
0
reset
how to read this tab
guitar tuner
edit
Autoscroll
slow
fast
+/-
esc
set tempo
stop
Author
Stone Temple Pilots - 'Pruno'
From the Album 'No. 4'
tabbed by jjhand
Standard tuning

Thanks to prodigidan@hotmail.com for a few of the riff ideas on a tab from
another site. I fixed most of it to reflect what I heard.

Intro - 2 Guitars, one has Flanger (regen rate every 1/2 beat)
play 3x                              End Intro 
e|---------------------------|      |-------------------------|
B|---------------------------|      |-------------------------|
G|---------------------------|      |--------------NH12-------|
D|--------0-5-0-3-5--0-0-0-0-|      |--------0-5-0-NH12-------|
A|-2b3-2~-0-5-0-3-5--0-0-0-0-|      |-2b3-2~-0-5-0-NH12-------|
D|--------0-5-0-3-5--0-0-0-0-|      |--------0-5-0------------|


Verse Riff 1 - Let Notes Ring (w/ heavy amp tremelo)
  play 3x                            play on 4th time, or bars 7 & 8 
e|---------------|--------------|   ---------------|---------------|
B|---------3-----|-----1---3----|   ---------3-----|-----1---3---1-|
G|-----0-2---0---|-----------0--|   -----0-2---0---|-----------0---| 
D|---4-----------|---2----------|   ---4-----------|---2-----------|
A|-5-------------|-3------------|   -5-------------|-3-------------|
D|---------------|--------------|   ---------------|---------------|

Then...
  Tremelo Part:
   Electric  
e|------------------|----------------------|
B|------------------|----------0--3--------|
G|-------0-----2----|-------0--------0--0--| 
D|----4-----4-------|----3-----------3--2--|
A|-2----------------|-1--------------1--3--|
D|------------------|----------------------|
 |
 | Acoustic                          *  * accent notes harder
e|------------------|----------------------|
B|-3----------------|-3--------------------|
G|-2----------------|-0--------------0--0--|
D|-0----------------|-3--------------3--2--|
A|-2----------------|-1--------------1--3--|
D|------------------|----------------------|


Chorus - Play Intro Riff

Play first 4 bars of Verse Riff again, 
then tremelo part
then Chorus Riff Again


Electric plays:
Break - (Note: After open chord, all * notes are NH)
e|--------------------|---------------------|------------------------|----------------|
B|----------*7--*7-*7-|---------------------|------------------------|----------------|
G|-------*7---*5------|---------------------|------------------------|----------------|
D|-0--*7--------------|---*4--*4----*2.6-*4-|---*3----*5--*2.6---*4--|----*3--*4---*5-|
A|-0------------------|-*3------*3----------|-*3----*3---------------|-*3-------------|
D|-0------------------|---------------------|------------------------|----------------|
 | 
 | Acoustic (play 2x to match 4 bars above)
e|-----------------------------|-----------------------------|
B|-3-3-3-3---3-3-3-3---3-3-3-3-|-3-3-3-3---3-3-3-3---3-3-3-3-|
G|-0-0-0-0---0-0-0-0---0-0-0-0-|-0-0-0-0---0-0-0-0---0-0-0-0-|
D|-4-4-4-4---4-4-4-4---4-4-4-4-|-5-5-5-5---5-5-5-5---5-5-5-5-|
A|-5-5-5-5---5-5-5-5---5-5-5-5-|-5-5-5-5---5-5-5-5---5-5-5-5-|
D|-----------------------------|-----------------------------|

When vocals enter, repeat harmonics 2x similarly 
since there might be subtle differences in repeats

Replay Tremelo part 2x

Play Chorus to end




Key:

NH - Natural Harmonic (number indicates where to lightly touch string)
b  - bend
~  - vibrato

            
            
Suggest correction
Creating personal tab
Creating personal tab
You can edit any tab online and save it as your Personal.

You can edit, replace or remove any tab part or add personal notes – all changes will be seen only by you.

Personal tabs can be accessed anytime from any device, even offline.
Learn more »
comments
print report bad tab
6 comments total. Showing first comments.
0 reply
Dodovoodoo9 289 Oct 06, 2013 06:10 PM

Thanks for the tab man! I have one question though:
What's 2.6 in the harmonic section?

0 reply
jjhand 19,283 Oct 07, 2013 07:27 AM

its a harmonic that is not directly ver a metal fret. Its 2/3 of the way between the 2nd and 3rd frets

0 reply
Solopak97 105 Apr 30, 2015 03:48 PM

Not sure about the harmonic section, but everything else is perfect. Great song, thank you!

guest
You may want to rate the tab now too:
select rating
Wanna post a correction for this tab? Suggest correction