Oops, an error
Loading. Please wait.

Seven Caged Tigers tab

version 2
version 2

Whole song

Interactive

13,512 views 15 this week
2 commentsread comments
1 2 3 4 5
x 8
add to favorites
×
Save as Personal and add changes to this tab that will be seen only by you. Learn more ›
×
You can save this tab as Personal to edit and correct it or add notes. All changes will be seen only by you. Learn more »
launch autoscroll
font size
0
reset
how to read this tab
guitar tuner
edit
Autoscroll
slow
fast
+/-
esc
set tempo
stop
Author
Stone Temple Pilots - "Seven Caged Tigers"
From "Tiny Music ..." Album
Standard Tuning
tabbed by jjhand

I wrote a few of the chord names since they repeat throughout the song.
There is one guitar throughout, but a second plays the solo. Rate me please


Intro
   G          B     E                     D          C6
e|--------------------|-------------0---|-2----2-----------|
B|--------------------|-----------0-0-0-|-3----3-----------|
G|------------4--4----|-----------1-1-1-|-2----2-----2--2--|
D|-5----5---5-4--4--2-|-(2)-------2-2-2-|-0----0---0-2--2--|
A|-5----5---5-2--2--2-|-(2)-------2---2-|------------3--3--|
E|-3----3---3-------0-|-(0)-------------|------------------|

   B7
e|------------------2--|
B|-4------4-----4-5-4--|
G|-2------2-----2-2-2--|
D|-4---4--4--4---------|
A|-2---2--2--2---------|
E|---------------------|


Verse 1
   Em         D7     Cmaj7                B5  G          B     E    etc
e|------0---------------|--------------------|---------------2-----|
B|------0---------7---5-|-(5)--5---5---------|---------------4-----|
G|------0-----/5--5---4-|-(4)--4---4-----4-4-|------------4--4-----|
D|-2----2---2-/4--4---5-|-(5)----5-----5-5-4-|-5----5---5-4--4--2--|
A|-2----2---2-/5--5---3-|-(3)----3-----3-3-2-|-5----5---5-2--2--2--|
E|-0----0---0-----------|--------------------|-3----3---3-------0--|

e|------------0--0-0--|--------------------|---------0-----0-----0-0---|
B|------------0--0-0--|--------------------|---------0-----0-----0-0-0-|
G|------------1--1-1--|------------4--4----|---------1-----1-----1-1-1-|
D|-(2)--------2--2-2--|-5----5---5-4--4--2-|-(2)--2--2--2--2--2--2-2-2-|
A|-(2)--------2--2-2--|-5----5---5-2--2--2-|-(2)--2--2--2--2--2------2-|
E|-(0)--------0--0-0--|-3----3---3-------0-|-(0)--0--0--0--0--0--------|

e|-2----2-----------|------------------2--|------0--------------0--|
B|-3----3-----------|-4------4-----4-5-4--|------0--------------5--|
G|-2----2-----2--2--|-2------2-----2-2-2--|-0----0---------5----4--|
D|-0----0---0-2--2--|-4---4--4--4---------|-2----2---2-/4--4----5--|
A|------------3--3--|-2---2--2--2---------|-2----2---2-/5--5----3--|
E|------------------|---------------------|-0----0---0-------------|

e|-(0)--0-----0-------|---------------2-----|------------0--0-0--|
B|-(5)--5-----5-------|---------------4-----|------------0--0-0--|
G|-(4)--4--4--4--4-4--|------------4--4-----|------------1--1-1--|
D|-(5)-----5-----5-4--|-5----5---5-4--4--2--|-(2)--------2--2-2--|
A|-(3)-----3-----3-2--|-5----5---5-2--2--2--|-(2)--------2--2-2--|
E|--------------------|-3----3---3-------0--|-(0)--------0--0-0--|


Chorus play 4x
   Eb                    Bbmaj9
e|---------------------|-5----5--5-5--5--5---5-5-5-5--|
B|-4-4--4----4-4--4----|-6----6--6-6--6--6---6-6-6-6--|
G|-3-3--3----3-3--3----|-5----5--5-5--5--5---5-5-5-5--|
D|-5-5--5----5-5--5----|-0----0--0-0--0--0---0-0-0-0--|
A|-6-6--6----6-6--6----|-x----x--x-x--x--x---x-x-x-x--|
E|---------------------|-6----6--6-6--6--6---6-6-6-6--|

Final Chorus Bar
   Bm9
e|-------------------------|
B|-7--7--7--7--7--7--7-----|
G|-6--6--6--6--6--6--6-----|
D|-0--0--0--0--0--0--0-----|
A|-x--x--x--x--x--x--x-----|
E|-7--7--7--7--7--7--7-----|


Play Verse again similarly (some strumming is different)

Play Chorus again


Solo - Starts during last Chorus bar (note "v" is a tremelo bar bend)
e|-----------|----------------------|-----------------------|
B|-----5--7--|-7b8--7--5--5b7-5--5--|-5b7--5----------------|
G|--4--------|----------------------|--------4--------------|
D|-----------|----------------------|-----------5-7-7b8r7-5-|
A|-----------|----------------------|-----------------------|
E|-----------|----------------------|-----------------------|
 |
 | Rhythm
e|-----------|-------------------0--|-(0)-------------0-----|
B|-----------|-------------------0--|-(0)-------------2-----|
G|--Final----|------------4--4---1--|-(1)--------2----2-----|
D|--chorus---|-5----5---5-4--4---2--|-(2)--------2----2-----|
A|---bar-----|-5----5---5-2--2---2--|-(2)--------0----0-----|
E|-----------|-3----3---3--------0--|-(0)-------------------|


Solo
|-------------------|-------------------|----------------------|
|-------------------|-8b10~---5-5-----5-|-8b10~---5-5v4v5---5--|
|----6---7-7--6-----|-------------------|----------------------|
|-/8-------------9--|-------------------|----------------------|
|-------------------|-------------------|----------------------|
|-------------------|-------------------|----------------------|
|
|
|-----------2--2----|-------------------|----------------------|
|------2----3--3----|-------------------|----------------------|
|------2----4--4----|-2----2----4-2---2-|-2----2----4-2-----2--|
|-4----4----4--4----|-2----2----2-2---2-|-2----2----2-2-----2--|
|-4----4----2--2----|-3----3----3-3---3-|-3----3----3-3-----3--|
|-2----2------------|-------------------|----------------------|



|----10--10~-----10--10b12r10-|-----------------|--------------------|
|-/12--12-----/12--12---------|-12------12-11-10|-/11-----10-12-12b13|
|-----------------------------|---------11-10-9-|-/11----------------|
|-----------------------------|-----------------|--------------------|
|-----------------------------|-----------------|--------------------|
|-----------------------------|-----------------|--------------------|
|
|
|----------------------2---0--|-(0)-------------|-------2------------|
|----------------------4---0--|-(0)-------------|-------2------------|
|------------------4---4---1--|-(1)--------2--2-|-------2-----4--4---|
|--5------5-----5--4---4---2--|-(2)--------2--2-|-4---4-4-----4--4---|
|--5------5-----5--2---2---2--|-(2)--------0--0-|-4---4-4-----2--2---|
|--3------3-----3----------0--|-(0)-------------|-2---2-2------------|

  * put your index finger over all three notes, pluck the top note
    and shake the whammy bar to get lower notes to ring
|-----------------|-----------------|------------/10--|-------------|
|-12*~~~~~~~~--\0-|-----------------|-----------------|-10----------|
|----~12~~~~~--\0-|-/5------\3------|-\2--------------|-------------|
|----~12~~~~~--\0-|-----------------|-----------------|-------------|
|-----------------|-----------------|-----------------|-------------|
|-----------------|-----------------|-----------------|-------------|
|
|Rhythm
|-3-3-3-3-3-3-3-3-|-3-3-3-3-3-3-3-3-|-2-2-2-2-2-2-2-2-|
|-0-0-0-0-0-0-0-0-|-0-0-0-0-0-0-0-0-|-3-3-3-3-3-3-3-3-|
|-0-0-0-0-0-0-0-0-|-0-0-0-0-0-0-0-0-|-2-2-2-2-2-2-2-2-| see below
|-0-0-0-0-0-0-0-0-|-0-0-0-0-0-0-0-0-|-0-0-0-0-0-0-0-0-|
|-2-2-2-2-2-2-2-2-|-2-2-2-2-2-2-2-2-|-0-0-0-0-0-0-0-0-|
|-3-3-3-3-3-3-3-3-|-3-3-3-3-3-3-3-3-|-----------------|

final bar for rhythm (cool blues lick)
|----------------------------------|
|-3----3------------------------3--|
|-2h4--2------------------------2--|
|---------4p2p0-2p0-2p0---0-2h4__--|
|-----------------------2----------|
|----------------------------------|


Play Chorus again


end on this chord as Chorus ends:
e|-2-----------------|
B|-2-----------------|
G|-2-----------------|
D|-4-----------------|
A|-2-----------------|
E|-------------------|



KEY:

| /  slide up
| \  slide down
| h  hammer-on
| p  pull-off
| ~  vibrato
| x  Mute note
| b  string bend
| r  release of bent string
| v  whammy bar dive (bend down in pitch)
|()  hold note into next bar
|__  hold note while picking next string

            
            
Suggest correction
Creating personal tab
Creating personal tab
You can edit any tab online and save it as your Personal.

You can edit, replace or remove any tab part or add personal notes – all changes will be seen only by you.

Personal tabs can be accessed anytime from any device, even offline.
Learn more »
comments
print report bad tab
2 comments total.
0 reply
♪madison♪ 10 Jul 06, 2010 06:20 AM

why does the intro sound like pops love suicide?

+3 reply
MrTabs 10 May 14, 2011 10:33 AM

Great tab! But the chords in the chorus are wrong. They are supposed to be...

Eb Maj Bb Maj9th Last Line
e|-----6-----|-----5-----|-----6-----|
B|-----4-----|-----6-----|-----7-----|
G|-----0-----|-----5-----|-----6-----|
D|-----5-----|-----0-----|-----0-----|
A|-----X-----|-----X-----|-----X-----|
E|-----6-----|-----6-----|-----7-----|

guest
You may want to rate the tab now too:
select rating
Wanna post a correction for this tab? Suggest correction