Oops, an error
Loading. Please wait.

Sex And Violence bass

version 1
version 1

Whole song

Interactive

764 views 3 this week
no commentswrite comment
1 2 3 4 5
2 more votes to show rating
add to favorites
×
Save as Personal and add changes to this tab that will be seen only by you. Learn more ›
×
You can save this tab as Personal to edit and correct it or add notes. All changes will be seen only by you. Learn more »
launch autoscroll
font size
0
reset
guitar tuner
backing track
0:00
0:00
edit
Autoscroll
slow
fast
+/-
esc
set tempo
stop
Author
Stone Temple Pilots - Sex and Violence
Bass tuned to Standard
tabbed by jjhand

This song is a little tough for bass, since the tempo is fast. 
Have fun and rate this tab please.

INTRO - Note that Bass plays the melody
Guitar 1
G|---------------------------| play 4x
D|---------------------------|
A|-1---------1---------------|
E|------3---------3----1-3---| 

VERSE- The first three notes are in the intro's ending,
Repeat the part between double bars 4x

G|-------||-----------------|------------------|-----------------|
D|-------||-----------------|------------------|-----------------|
A|-----5-||-4---4-4-4-4-4-4-|-4-4-4-4-4-3-4-5--|-----------------|
E|-3-6---||-----------------|------------------|-3---3-3-3-3-3-3-|

ending 1-3                 ending on final repeat
G|------------------||     |-----------------|
D|------------------||     |-----------------|
A|---------------5--||     |-----------------|
E|-3-3-3-3-3-3-6----||     |-3-3-3-3-3-3-3-3-|

PRECHORUS - let guitar ring
   D   Dsus2                 Dsus4             Bb7
G|----------|----------|----------|----------|----------|---------|
D|----------|----------|----------|----------|----------|---------|
A|-5-5-5----|----------|-5-5-5----|----------|-4-4-4----|---------|
E|----------|----------|----------|----------|----------|---------|
   Eb9                                         Dmaj7
G|----------|----------|----------|----------|----------|---------|
D|----------|----------|----------|----------|----------|---------|
A|-6-6-6----|----------|-5-5-5----|----------|-5-5-5----|---------|
E|----------|----------|----------|----------|----------|---------|


CHORUS (Bass plays a faster rhythm than guitar)

G|-------------------------------| X 4
D|-------------------------------|
A|-------------------------------|
E|-6-6-6-6-6-6-6-6-6-6-6-6-6-----|

G|-------------------------------| X 4
D|-------------------------------|
A|-5-5-5-5-5-5-5-5-5-5-5-5-5-5---|
E|-------------------------------|

Next, play modified intro:
G|---------------------------|----------------------------| 
D|---------------------------|-----------/5---3-----------|
A|-1---------1---------------|-1----------------5-3---3---|
E|------3---------3----1-3---|------3---------------6---6-|

G|---------------------------|---------------------------| 
D|---------------------------|---------------------------|
A|-1---------1---------------|-1---------1-------------5-|
E|------3---------3----1-3---|------3---------3----3-6---|

Play verse Part again (minus the first three notes)
Play Pre-Chorus
Play Chorus 1x, then repeat each line 2x



ENDING

G|----------------------------------|  X 2
D|----------------------------------|
A|-3h5-5--3h5-5--3h5-5--3h5-5--5-5--|
E|----------------------------------|


key: h - hammer-on
     / - slide

            
            
Suggest correction
Creating personal tab
Creating personal tab
You can edit any tab online and save it as your Personal.

You can edit, replace or remove any tab part or add personal notes – all changes will be seen only by you.

Personal tabs can be accessed anytime from any device, even offline.
Learn more »
Give kudos to tab author, rate the tab!
1 2 3 4 5
comments
print report bad tab
guest
You may want to rate the tab now too:
select rating
Wanna post a correction for this tab? Suggest correction