Oops, an error
Loading. Please wait.

Sin tab

version 3
version 3

Whole song

Interactive

10,418 views 36 this week
1 commentread comment
1 2 3 4 5
x 8
add to favorites
×
Save as Personal and add changes to this tab that will be seen only by you. Learn more ›
×
You can save this tab as Personal to edit and correct it or add notes. All changes will be seen only by you. Learn more »
launch autoscroll
font size
0
reset
how to read this tab
guitar tuner
backing track
0:00
0:00
edit
Autoscroll
slow
fast
+/-
esc
set tempo
stop
Author
Difficulty
STP - 'Sin'
From 'Core' Album
Standard Tuning, 2 guitar parts
tabbed by jjhand

Please give this a rating and enjoy it! 


Intro - play 2x, let strings ring
e|-------0-----------------------0------------------|
B|-----0---0---0---------------0---0---0------------|
G|---3-------3---3-1-------3-3-------3---3-1--------|
D|---2---------------------2-2----------------------|
A|---2---------------------2-2----------------------|
E|---0---------------------0-0----------------------|


Verse (play 8x, see rhythm below)              Chorus pick-up notes:
  e|-----------------------------------|       ------|
  B|-----------------------------------|       ------|
  G|--3-3-3-3-x-x-1-1-1-1-x-x-1-1-x-x--|       ------|
  D|--2-2-2-2-x-x-2-2-2-2-x-x-2-2-x-x--|       ------|
  A|--2-2-2-2-x-x-2-2-2-2-x-x-2-2-x-x--|       ------|
  E|--0-0-0-0-x-x-0-0-0-0-x-x-0-0-x-x--|       -0-2--|
                                  * *          replace starred x's
beat: 1       2       3       4                on last repeat



Chorus - play 4x
guitar 1 (notes with * are not played on the last time through)
e|----------------------------------|---------------------------------|
B|----------------------------------|---------------------------------|
G|--------0-----------0-------------|-------0----------0--------------|
D|------0-----0-----0-----0---0-----|-----0----0-----0----0-----------|
A|----2-----------4---------4---4p0-|---0----------2---------*2---*4--|
E|--3-----------5-------------------|-1----------3---------*3---*5----|
 |
 | guitar 2
e|--3-----------0-------------------|-1----------3------------------|
B|--3-----------2-------------------|-1----------3------------------|
G|--4-----------2-------------------|-2----------4------------------|
D|--5-----------2-------------------|-3----------5------------------|
A|--5-----------0-------------------|-3----------5------------------|
E|--3-------------------------------|-1----------3------------------|



Bridge (2:21 in the song) - play 8x  
e|-----------------------------------------|
B|-8-------7-------8-------7-------7---7---|
G|-7--7-7--7--7-7--7--7-7--7--7-7--7-7-7-7-| 
D|-----------------------------------------|  
A|-----------------------------------------|  
E|-----------------------------------------|
 some G string notes are occasional NH


Bridge Ending (3:05)
    F/D   C/D    C#9     Bm9 
e|-------------|------------|-------------|
B|--6--6--5~---|-4--5----2--|-(2)---------|
G|--5--5--5~---|-4--4----2--|-(2)---------|
D|--0-----0----|-3--3----0--|-(0)---------|
A|-------------|-4--4----2--|-(2)---------|
E|-------------|------------|-------------|



Play Verse again

Play Chorus again for 3x, but end chorus on:
e|-------------------------------|-----------3----------|-(3)------|
B|-------------------------------|-----------0----------|-(0)------|
G|--------0---------0------------|-0----0----0----------|-(0)------|
D|------0----0----0----0---0-----|-0----0----0----------|-(0)------|
A|----2---------4--------4---4p0-|-0----0----2----------|-(2)------|
E|--3---------5------------------|-1----1----3----------|-(3)------|



  Acoustic Break, played 3x:
   Acoustic
e|-------3-----------3---------3---|
B|---3-3----3----3-3----3----3---3-|
G|-0-----------0-----------0-------|play 2x, then see below
D|---------------------------------|
A|---------------------------------|
E|---------------------------------|
 |
 | Clean Electric plays  
e|---------------------------------|
B|-------3-----------3---------3---|
G|---2------2----2------2----2---2-|play 4x
D|-0-----------0-----------0-------|
A|---------------------------------|
E|---------------------------------|

  Acoustic plays this during 3rd and 4th bar of Electric rhythm:
e|------------3-3-3-3-3---|-(3)---------------------|
B|-3----------0-2-0-2-3---|-(3)---------------------|
G|-0----------0-0-0-0-0---|-(0)---------------------|
D|------------------------|-------------------------|
A|------------------------|-------------------------|
E|------------------------|-------------------------|

on third time through, the G chord is held as the drums heat up



GUITAR SOLO (the fun part)

the bridge from 2:21 in the song is the rhythm guitar for this solo.

e|---------------------------|----------------|---------------------------|
B|---------------------------|----------------|-----------------------7---|
G|---------------------------|----------------|-----------4-----7-4-----7-|
D|---------------------------|----------------|-----5-------5-------------|
A|-5b7r5b7r5b7r5b7-----------|----------------|-7-----7-------------------|
E|-----------------5b6r5-3b5-|(5)r3b5r3~~~/---|---------------------------|

e|---------------------|---------------14-12-11-|-15-14~--------------------|
B|-10b12--8~~---10__\8-|\7----------------------|-------------15b17___------|
G|---------------------|-----/12\11/12----------|---------------------14b16-|
D|---------------------|------------------------|---------------------------|
A|---------------------|------------------------|---------------------------|
E|---------------------|------------------------|---------------------------|

e|----------------------15-14----|-----------------------------|
B|-15b17-------------15-------12-|-------15b17-----12----------|
G|-------14b16r14b16-------------|-14-12-----------------------|
D|-------------------------------|--------------------14b16~~~-|
A|-------------------------------|-----------------------------|
E|-------------------------------|-----------------------------|



e|------------------------------------|---------------------|-------------------|
B|-----------------12/13/15\13--------|-12b14~~--12---------|-------------------|
G|------11/12/14---------------15-14~-|-------------14-13---|-13b14~~~~~~~~-----|
D|-14---------------------------------|---------------------|-------------------|
A|------------------------------------|---------------------|--gradual bend-----|
E|------------------------------------|---------------------|-------------------|



Outro - play Intro, but end on E Chord as shown:
e|------------|
B|------------|
G|--1-1-------|
D|--2-2-------|
A|--2-2-------|
E|--0-0-------|


key:
| /  slide up
| \  slide down
| h  hammer-on
| p  pull-off
| ~  vibrato
| x  Mute note (or rake)
| b  bend (bends with vibrato bar indicated)
| r  release bend

            
            
Suggest correction
Creating personal tab
Creating personal tab
You can edit any tab online and save it as your Personal.

You can edit, replace or remove any tab part or add personal notes – all changes will be seen only by you.

Personal tabs can be accessed anytime from any device, even offline.
Learn more »
comments
print report bad tab
1 comment total.
0 reply
andrewjp123 593 Jan 11, 2010 06:03 PM

great job

guest
You may want to rate the tab now too:
select rating
Wanna post a correction for this tab? Suggest correction