Oops, an error
Loading. Please wait.

Song For Sleeping tab

version 2
version 2

Whole song

3,771 views 15 this week
1 commentread comment
1 2 3 4 5
x 4
add to favorites
×
Save as Personal and add changes to this tab that will be seen only by you. Learn more ›
×
You can save this tab as Personal to edit and correct it or add notes. All changes will be seen only by you. Learn more »
launch autoscroll
font size
0
reset
how to read this tab
guitar tuner
edit
Autoscroll
slow
fast
+/-
esc
set tempo
stop
Author
Stone Temple Pilots - "A song for sleeping"
Album: Shangri la de da
Standard Tuning - Acoustic & Lead Slide Guitar for solo
tabbed by jjhand



Intro - play 2x, let notes ring

E|-2----2----------2----------------|
A|-2----2------2h4-----2------------|
D|-3----3------------3-----3--------|
G|-4----4----4-----------4-------4--|
B|-4----4--------------------4h6----|
E|-2----2---------------------------|


For Verse, play Riff 1 4x, 
                Lick 1 2x, 
                Riff 1 2x, 
                Lick 1 2x, 
                Riff 1 2x

Riff 1:
e|------------------------2-2-2--|
B|------------------------2-2-2--|
G|-3----3----3--3-3--3----3-3-3--|
D|-4----4----4--4-4--4-----------|
A|-4----4----4--4-4--4-----------|
E|-2----2----2--2-2--2-----------|

Lick 1:
E|-----11------------9----------------|
A|---9----9---9----9---9----9----9----|
D|-9--------9---11-------11---11------|
G|------------------------------------|
B|------------------------------------|
E|------------------------------------|



Prechorus:
E|------2-------2---|-----2-------2---|
A|----3-------3-----|---3-------3-----|
D|--2-------2-------|-1-------1-------|
G|------------------|-----------------|
B|------------------|-----------------|
E|------------------|-----------------|

E|------2-------2---|-----2-------2---|---------------------|
A|----3-------3-----|---3-------3-----|---------------------|
D|--2-------2-------|-1-------1-------|---------------------|
G|------------------|---------------4-|-5----5---5---7--7-7-|
B|------------------|---------------4-|-5----5---5---7--7-7-|
E|------------------|---------------2-|-3----3---3---5--5-5-|



Chorus
e|-0----0---0-0-0---0-0-|-0----0---0-0-0---0-0-|
B|-4----4---4-4-4---4-4-|-4----4---4-4-4---4-4-|
G|-4----4---4-4-4---4-4-|-4----4---4-4-4---4-4-|
D|-4----4---4-4-4---4-4-|-4----4---4-4-4---4-4-|
A|-2----2---2-2-2---2-2-|-0----0---0-0-0---0-0-|
E|----------------------|----------------------|

e|-0----0---0-0-0---0-0-|-0----0---0-0-0---0-0----|
B|-4----4---4-4-4---4-4-|-4----4---4-4-4---4-4----|
G|-4----4---4-4-4---4-4-|-4----4---4-4-4---4-4----|
D|-2----2---2-2-2---2-2-|-4----4---4-4-4---4-4----|
A|----------------------|-2----2---2-2-2---2-2----|
E|----------------------|-------------------------|


Play Verse and Chorus again


Solo (Guitar 2 w/ slide)
e|--------------|---------------|---------------|--------2-|
B|----7---------|---------------|---2---------2-|----------|
G|----------/10-|-/10--\-3--3-1-|-/3----3-1/3---|-1/3------|
D|--------------|---------------|---------------|----------|
A|--------------|---------------|---------------|----------|
E|--------------|---------------|---------------|----------|

e|-/4---2--4/5-|--7\5-----7-|-/9---7----------7-|-/9---7--------|
B|-------------|------------|--------10~---10---|--------10~--9-|
G|-------------|------------|-------------------|---------------|
D|-------------|------------|-------------------|---------------|
A|-------------|------------|-------------------|---------------|
E|-------------|------------|-------------------|---------------|

e|---------------|-----------------| <- Guitar 1 starts playing 
B|-7-------9\7---|-7/9---7---------|    Chorus again in last bar
G|-------------8-|-----------------|    of solo, so these overlap.
D|---------------|-----------------|
A|---------------|-----------------|
E|---------------|-----------------|


Play Chorus 3x to finish song, 
 * The last Chorus slows down and drops out before the final chords
   listen to the song to get this right


key-

/ or \ - slides
h      - hammer-on
p      - pull-off

            
            
Suggest correction
Creating personal tab
Creating personal tab
You can edit any tab online and save it as your Personal.

You can edit, replace or remove any tab part or add personal notes – all changes will be seen only by you.

Personal tabs can be accessed anytime from any device, even offline.
Learn more »
comments
print report bad tab
1 comment total.
0 reply
Dodovoodoo9 289 Aug 01, 2013 10:58 PM

Thanks man!

guest
You may want to rate the tab now too:
select rating
Wanna post a correction for this tab? Suggest correction