Oops, an error
Loading. Please wait.

Tiny Music Songs From The Vatican Giftshop album tab

version 1
version 1

Album

Whole song

7,216 views 6 this week
no commentswrite comment
1 2 3 4 5
1 last vote to show rating
add to favorites
×
Save as Personal and add changes to this tab that will be seen only by you. Learn more ›
×
You can save this tab as Personal to edit and correct it or add notes. All changes will be seen only by you. Learn more »
launch autoscroll
font size
0
reset
how to read this tab
guitar tuner
edit
Autoscroll
slow
fast
+/-
esc
set tempo
stop
Author
...TINY MUSIC (SONGS FROM THE VATICAN GIFT SHOP)...
---------------------------------------------------

by Stone Temple Pilots (1996)
......................

...........................................
 *TINY MUSIC (SONGS FROM THE VATICAN GIFT SHOP)*
-------------------------------------------------

>1. PRESS PLAY
>2. POP'S LOVE SUICIDE
>3. TUMBLE IN THE ROUGH
>4. BIG BANG BABY
>5. LADY PICTURE SHOW
>6. AND SO I KNOW
>7. TRIPPIN' ON A HOLE IN A PAPER HEART
>8. ART SCHOOL GIRL
>9. ADHESIVE
>10.RIDE THE CLICHÉ
>11.DAISY
>12.SEVEN CAGED TIGERS
...........................................


1...PRESS PLAY... by Stone Temple Pilots
-----------------.......................

*from 'Tiny Music...Songs from the Vatican Gift Shop' (1996)*


(*Fades In*)


*(Guitar 1): (Bass arranged for Guitar)

   (Em9)
e|-----------------------------------|-----------------------------|
B|-----------------------------------|-----------------------------|
G|-----------------------------------|-----------------------------|
D|-----------------------------------|-----------------------------|
A|--------------4/5-5-5-5--x-x-x-----|-----------------------------|
E|--0--x-x-x-x--------------------3--|--5--5--x-x-x-x-x-x-x--5--3--|

*(Guitar 2):

Plays Em9 chord and Harmonics on 12th, 7th and 5th Frets

(Repeat to Fade)


CHORD DIAGRAMS:
---------------

   Em9

 EADGBE
 xx4000


Tabbed by Joel from cLuMsY, Bristol, England, 2005 (clumsyband@hotmail.com)


2...POP'S LOVE SUICIDE... by Stone Temple Pilots
------------------------.......................

*from 'Tiny Music...Songs from the Vatican Gift Shop' (1996)*


Intro:

    E5   G5   A5        B5      E5   G5   A5        B5
e|---------------------------|---------------------------|
B|---------------------------|---------------------------|
G|------------2--2-2-2--4-4--|------------2--2-2-2--4-4--|
D|--2-2--5-5--2--2-2-2--4-4--|--2-2--5-5--2--2-2-2--4-4--|
A|--2-2--5-5--0--0-0-0--2-2--|--2-2--5-5--0--0-0-0--2-2--|
E|--0-0--3-3-----------------|--0-0--3-3-----------------|

    E5   G5   A5        B5      A5* Ab5 G5
e|---------------------------|-------------|
B|---------------------------|-------------|
G|------------2--2-2-2--4-4--|-------------|
D|--2-2--5-5--2--2-2-2--4-4--|--7---6---5--|
A|--2-2--5-5--0--0-0-0--2-2--|--7---6---5--|
E|--0-0--3-3-----------------|--5---4---3--|

Verse 1:

    G5 A5 B5 G5 A5   E5
e|------------------------|
B|-------4----------------|
G|-----2/4------2-2-------|
D|--5--2/4---5--2-2--2-2--|
A|--5--0-----5--0-0--2-2--|
E|--3--------3-------0-0--|

(with Verse Riff):

G5   A5 B5 G5  A5 E5   G5  A5 B5   G5 A5   E5
 Can       you fi-gure out,   what I  want?
G5   A5 B5 G5  A5   E5  G5   A5 B5 G5  A5  E5
 Pull      the trig-ger with,   a  pop gun.

G5   A5 B5 G5   A5    E5   G5  A5 B5 G5   A5  E5
 Mind-     less fools that agg   -ra-vate it,
G5   A5 B5 G5  A5  E5  G5 A5 B5  G5 A5   E5
 Pick     at  you in, des  -per-a -tion.

Chorus 1:

    E5   G5   A5        B5      E5   G5   A5        B5
e|---------------------------|---------------------------|
B|---------------------------|---------------------------|
G|------------2--2-2-2--4-4--|------------2--2-2-2--4-4--|
D|--2-2--5-5--2--2-2-2--4-4--|--2-2--5-5--2--2-2-2--4-4--|
A|--2-2--5-5--0--0-0-0--2-2--|--2-2--5-5--0--0-0-0--2-2--|
E|--0-0--3-3-----------------|--0-0--3-3-----------------|

    E5   G5   A5        B5      A5* Ab5 G5
e|---------------------------|-------------|
B|---------------------------|-------------|
G|------------2--2-2-2--4-4--|-------------|
D|--2-2--5-5--2--2-2-2--4-4--|--7---6---5--|
A|--2-2--5-5--0--0-0-0--2-2--|--7---6---5--|
E|--0-0--3-3-----------------|--5---4---3--|

(with Chorus Riff):

E5  G5  A5          B5       E5  G5   A5
         Oh, it's a love pop sui-cide,
           B5       E5  G5   A5          B5     A5* Ab5 G5
Oh, I'm in love pop sui-cide, although I really do -n't know.

Verse 2: (with Verse Riff)

G5  A5 B5 G5   A5  E5  G5  A5  B5 G5 A5 E5
 Pop      life liv-ing is,     so re-al,
G5  A5 B5 G5   A5  E5    G5   A5  B5  G5   A5  E5
 Mid     -west far-mers' kids,    are milk-fed.

G5    A5 B5 G5  A5 E5 G5   A5 B5   G5  A5  E5
 Breed      and in-cu-bate,   what you see,
G5  A5 B5 G5    A5 E5  G5 A5 B5 G5 A5 E5
 Ten      years la-ter on,      T -V.

Chorus 2: (with Chorus Riff)

E5  G5  A5          B5       E5  G5   A5
         Oh, it's a love pop sui-cide,
           B5       E5  G5   A5          B5     A5* Ab5 (G5)
Oh, I'm in love pop sui-cide, although I really do -n't  know.

Bridge 1:

G5      Bb5   C5                      D5           G5
 (Yeah, yeah, yeah, yeah), although I really don't know.
       Bb5   C5                      D5           G5
(Yeah, yeah, yeah, yeah), although I really don't know.
       Bb5   C5                      D5           Bb5
(Yeah, yeah, yeah, yeah), although I really don't know.

Verse 3: (with Verse Riff)

G5 A5 B5 G5   A5    E5  G5   A5  B5   G5 A5   E5
 Fa     -ther can't you love,    your wo-man?
G5 A5 B5 G5   A5    E5  G5    A5  B5   G5    A5   E5
 Fa     -ther can't you teach,    your child-ren?

G5 A5 B5 G5    A5   E5 G5  A5   B5     G5   A5  E5
 Long    range love im-plo-sion, short wick-ed,
G5 A5 B5 G5   A5   E5  G5 A5 B5 G5  A5   E5
 Short   wave mind,          ex-plo-sion promise.

Chorus 3: (with Chorus Riff)

E5  G5  A5          B5       E5  G5   A5
         Oh, it's a love pop sui-cide,
        B5       E5   G5   A5          B5     A5* Ab5 (G5)
About a pop star homi-cide, although I really do -n't  know.

Bridge 2:

G5      Bb5   C5                      D5           G5
 (Yeah, yeah, yeah, yeah), although I really don't know.
       Bb5   C5                      D5           G5
(Yeah, yeah, yeah, yeah), although I really don't know.
       Bb5   C5                      D5           G5
(Yeah, yeah, yeah, yeah), although I really don't know.
       Bb5   C5                      D5           G5
(Yeah, yeah, yeah, yeah), although I really don't care.
       Bb5   C5                      D5           G5
(Yeah, yeah, yeah, yeah), although I really don't know.
       Bb5   C5                      D5           G5
(Yeah, yeah, yeah, yeah), although I really don't know.
       Bb5   C5                      D5           Bb5
(Yeah, yeah, yeah, yeah), although I really don't know.

Solo: (Over Verse Riff)

   (E5)
e|--0----------------|--0--------------|--0--------|
B|----3-5--5-7--7-8--|----8-10--8------|-----------|
G|-------------------|------------7----|-----7-----|
D|-------------------|--------------9--|--------9--|
A|-------------------|-----------------|-----------|
E|-------------------|-----------------|-----------|

e|----------------|-------------------|
B|----8/12--12-8--|--10-10-10-7--7b8--|
G|--9-------------|-------------------|
D|----------------|-------------------|
A|----------------|-------------------|
E|----------------|-------------------|

e|---------------------|--------------------------|
B|--7---7----/10--/12--|--10h12p10-8--7-8-7-------|
G|----9---9------------|---------------------9-8--|
D|---------------------|--------------------------|
A|---------------------|--------------------------|
E|---------------------|--------------------------|

e|-----x--x-----10--|--10-----7-----5-------|
B|-----x--x--13b15--|------10b12--8b10--8b--|
G|--9--x--x---------|-----------------------|
D|-----x--x---------|-----------------------|
A|------------------|-----------------------|
E|------------------|-----------------------|

e|------------------------------|--------------|
B|--10r8b10r8--10b12r10r8-------|--8-----7-----|
G|-------------------------9-9--|-----6-----6--|
D|------------------------------|--------------|
A|------------------------------|--------------|
E|------------------------------|--------------|

e|----------------|--------------------------|
B|--8----7---7----|--8---8-----------12------|
G|--7--6---6---6--|--7---7---12--15------12--|
D|----------------|--------------------------|
A|----------------|--------------------------|
E|----------------|--------------------------|

e|----------------|----------|
B|--14------------|----------|
G|------15/16b19--|--16b19---|
D|----------------|----------|
A|----------------|----------|
E|----------------|----------|

(Fade)


CHORD DIAGRAMS:
---------------

   E5      G5      A5      B5      A5*     Ab5     Bb5      C5        D5

 EADGBE  EADGBE  EADGBE  EADGBE  EADGBE  EADGBE  EADGBE  EA D GBE  E A D GBE
 022xxx  355xxx  x022xx  x244xx  577xxx  466xxx  688xxx  81010xxx  101212xxx


Tabbed by Joel from cLuMsY, Bristol, England, 2005 (clumsyband@hotmail.com)


3...TUMBLE IN THE ROUGH... by Stone Temple Pilots
--------------------------.......................

*from 'Tiny Music...Songs from the Vatican Gift Shop' (1996)*


Intro:

  Gdim Gm7b5 Gdim  Gm7b5 Gdim
e|----------------------------|
B|----------------------------|
G|--0--0-----0-0-0--0----0-0--|
D|--2--3-----2-2-2--3----2-2--|
A|--4--4-----4-4-4--4----4-4--|
E|----------------------------|(x4)

    G5     Bb5          (n.c)
e|--------------------|-----------------|
B|--------------------|-----------------|
G|--------------------|-----------------|
D|--------------------|-----------------|
A|--5-5-5--8-8-8-8-x--|--x-x-x-x-x-x-x--|
E|--3-3-3--6-6-6-6-x--|--x-x-x-x-x-x-x--| (x4)

Verse 1:

G5
 I can't eat, I can't sleep, I can't live, I can't cry, I can't die.
I can't walk, I can't talk,
Booze; I can booze, steal your shoes, so I can move.
Tumble in the rough, tumble in the rough, tumble in the rough.

Bridge 1:

    G5     Bb5          (n.c)
e|--------------------|-----------------|
B|--------------------|-----------------|
G|--------------------|-----------------|
D|--------------------|-----------------|
A|--5-5-5--8-8-8-8-x--|--x-x-x-x-x-x-x--|
E|--3-3-3--6-6-6-6-x--|--x-x-x-x-x-x-x--|

(with Bridge Riff):

G5  Bb5
     I'm looking for a new meditation,
G5  Bb5
     Still looking for a new way to fly.
G5  Bb5
     Don't want any plastic validation,
G5  Bb5
     Not looking for a new way to die.

Chorus 1:

Bb5                                     C5
 I made excuses for a million lies, but all I got was humble kidney pie.
D5  G5    Bb5
 So what?
D5  G5    Bb5 (n.c)
 So what?

Interlude:

    G5     Bb5          (n.c)
e|--------------------|-----------------|
B|--------------------|-----------------|
G|--------------------|-----------------|
D|--------------------|-----------------|
A|--5-5-5--8-8-8-8-x--|--x-x-x-x-x-x-x--|
E|--3-3-3--6-6-6-6-x--|--x-x-x-x-x-x-x--| (x2)

Verse 2:

G5
 I can't eat, I can't sleep, I can't live, I can't cry, I can't die.
I can't walk, I can't talk,
Booze; I can booze, steal your shoes, so I can move.
Tumble in the rough, tumble in the rough, tumble in the rough.

Bridge 2: (with Bridge Riff)

G5  Bb5
     I'm looking for a new stimulation,
G5  Bb5
     Quite bored of those inflatable ties.
G5  Bb5
     I'm looking for a new rock sensation,
G5  Bb5
     Dead fish don't swim around in jealous tides.

Chorus 2:

Bb5                                     C5
 I made excuses for a million lies, but all I got was humble kidney pie.
D   G5    Bb5
 So what?
D   G5    Bb5
 So what?
D   G5    Bb5
 So what?
D   G5    Bb5
 So what?

Break:

e|---------------------|-----------------------|
B|---------------------|-----------------------|
G|---------------------|-----------------------|
D|---------------------|-----------------------|
A|---------1--------1--|--------1--3--3--1-----|
E|--3---3-----1--1-----|--0--0--------------3--|
    Can't live, can't buy new shoes, (tumble in the rough).

e|---------------------|-----------------------|
B|---------------------|-----------------------|
G|---------------------|-----------------------|
D|---------------------|-----------------------|
A|---------1--------1--|--------1--3--3--1-----|
E|--3---3-----1--1-----|--0--0--------------3--|
    Lived on a summer with new shoes, (tumble in the rough).

e|---------------------|-----------------------|
B|---------------------|-----------------------|
G|---------------------|-----------------------|
D|---------------------|-----------------------|
A|---------1--------1--|--------1--3--3--1-----|
E|--3---3-----1--1-----|--0--0--------------3--|
    Can't live, can't buy new shoes, (tumble in the rough).

e|---------------------|-----------------------|
B|---------------------|-----------------------|
G|---------------------|-----------------------|
D|---------------------|-----------------------|
A|---------1--------1--|--------1--3--3--1-----|
E|--3---3-----1--1-----|--0--0--------------3--|
    Lived on a summer with new shoes, (tumble in the rough).

Solo:

   G5    Bb5          G5    Bb5
e|----0---------1--|----3-----1-----0--|
B|--3b5-------3b6--|--3b8---3b6---3b5--|
G|-----------------|-------------------|
D|-----------------|-------------------|
A|-----------------|-------------------|
E|-----------------|-------------------|

    G5    Bb5                                 G5
e|-------------------------|---------------------|
B|----3---3----------------|---------------------|
G|--5b7---5--3-5-5b6r5--3--|--5b7--5-3-5b7r5--3--|
D|-------------------------|---------------------|
A|-------------------------|---------------------|
E|-------------------------|---------------------|

           Bb5                                         G5
e|------------------------|----------------10----------11--|
B|------3--3--3--7----8---|--8/11------11------11----------|
G|--3-5b7--7--5--9--9b12--|--7/10--12--------------12------|
D|------------------------|--------------------------------|
A|------------------------|--------------------------------|
E|------------------------|--------------------------------|

Verse 3:

G5
 I can't eat, I can't sleep,
I can't live, I can't cry, I can't die.
I can't walk, I can't talk,
Booze; I can booze, steal your shoes, so I can move.
Tumble in the rough, tumble in the rough, tumble in the rough.

Chorus 3:

Bb5
 I made excuses for a million lies,
C5
 But all I got was humble kidney pie;
Bb5
 I made excuses for a million lies,
C5
 But all I got was humble kidney pie;

D   G5    Bb5
 So what?
D   G5    Bb5
 So what?
D   G5    Bb5
 So what?
D   G5    Bb5 (n.c)
 So what?

Outro:

  Gdim Gm7b5 Gdim  Gm7b5 Gdim
e|----------------------------|
B|----------------------------|
G|--0--0-----0-0-0--0----0-0--|
D|--2--3-----2-2-2--3----2-2--|
A|--4--4-----4-4-4--4----4-4--|
E|----------------------------| (x4)


CHORD DIAGRAMS:
---------------

  Gdim    Gm7b5    G5      Bb5     C5      D5

 EADGBE  EADGBE  EADGBE  EADGBE  EADGBE  EADGBE
 x420xx  x43xxx  355xxx  688xxx  x355xx  x577xx


Tabbed by Joel from cLuMsY, Bristol, England, 2005 (clumsyband@hotmail.com)


4...BIG BANG BABY... by Stone Temple Pilots
--------------------.......................

*from 'Tiny Music...Songs from the Vatican Gift Shop' (1996)*


Intro:

    E5   G5 G#5 A5  D5 C#5   C5   B5 A#5 G    A5*
e|------------------------|----------------------|
B|------------------------|----------------------|
G|------------------7--6--|--5-5--4--3--------2--|
D|--2-2--5--6--7-7--7--6--|--5-5--4--3---0-0--2--|
A|--2-2--5--6--7-7--5--4--|--3-3--2--1---2-2--0--|
E|--0-0--3--4--5-5--------|--------------3-3-----|

*(Vocals start on C5 Chord)

Verse 1: (with Intro Riff)

C5  B5  A#5 G       A5*  E5    G5    G#5 A5 D5 C#5 C5
  I got a   picture of a photo-graph,
C5  B5  A#5 G    A5* E5 G5    G#5 A5 D5 C#5 C5
 Of a   wed-ding and a  shell.
C5    B5   A#5 G       A5* E5  G5     G#5 A5 D5 C#5 C5
 It's just a   burning ach-ing memory,
C5 B5 A#5 G    A5* E5
 I ne-ver kiss and tell.

Interlude:

    E5   G5 G#5 A5  D5 C#5   C5   B5 A#5 G    A5*
e|------------------------|----------------------|
B|------------------------|----------------------|
G|------------------7--6--|--5-5--4--3--------2--|
D|--2-2--5--6--7-7--7--6--|--5-5--4--3---0-0--2--|
A|--2-2--5--6--7-7--5--4--|--3-3--2--1---2-2--0--|
E|--0-0--3--4--5-5--------|--------------3-3-----|

Bridge 1: (with Verse Riff)

   E5      G5 G#5 A5       D5      C#5 C5   B5 A#5  G
So turn it up and burn it, there's a   hole in your head,
A5*        E5   G5 G#5  A5    D5    C#5 C5    B5    A#5 G      A5*
 There's a hole in your head, where the birds can't,    sing a-long.

E5       G5  G#5 A5    D5  C#5 C5    B5   A#5 G
 Does anybod-y   know, how the story real-ly  goes?
A5*       E5    G5   G#5 A5       D5 C#5 C5  B5   A#5 C5  E5 A5*
 How this story real-ly  goes; or do we  all just     hum a -long?

Chorus 1:

C5                          Asus2
 Sell your soul and sign an autograph;
E
 Big bang baby it's a crash, crash, crash.
C5                 D5
 I wanna die but I gotta laugh;
E
 Orange crush mama is a laugh, laugh, laugh.

Verse 2: (with Verse Riff)

E5 G5 G#5 A5 D5 C#5 C5

B5    A#5 G   A5*  E5       G5 G#5  A5 D5 C#5
 Spin me  up, spin me, spin me out,
C5   B5    A#5  G       A5*  E5        G5  G#5 A5 D5 C#5
 Sta-tion, love station send me up and out.
C5  B5   A#5  G        A5*  E5       G5    G#5 A5 D5 C#5
 Is this what life and love is all a-bout?
C5 B5    A#5 G     A5*
 I think I   think so.

Bridge 2: (with Verse Riff)

E5          G5  G#5 A5      D5  C#5  C5   B5    A#5 G
 We used to see in  colour, now it's only black and white,
A5*  E5        G5    G#5 A5      D5  C#5 C5    B5 A#5 G      A5*
 But it's only black and white, 'cos the world is     colour blind.

E5       G5  G#5 A5    D5  C#5 C5    B5   A#5 G
 Does anybod-y   know, how the story real-ly  goes?
A5*       E5    G5   G#5 A5       D5 C#5 C5  B5   A#5 C5  E5 A5*
 How this story real-ly  goes; or do we  all just     hum a -long?

Chorus 2:

C5                          Asus2
 Sell your soul and sign an autograph;
E
 Big bang baby it's a crash, crash, crash.
C5                 D5
 I wanna die but I gotta laugh;
E
 Orange crush mama is a laugh, laugh, laugh.

Break:

    E*                    Emaddb13
e|--0--0--0--0--0--0---|--0--0--0--0---|
B|--12-12-12-12-12-13--|--13-13-13-13--|
G|--13-13-13-13-13-12--|--12-12-12-12--|
D|--14-14-14-14-14-14--|--14-14-14-14--|
A|--14-14-14-14-14-14--|--14-14-14-14--|
E|--0--0--0--0--0--0---|--0--0--0--0---|

(with Above Riff):

E*             Emaddb13
 Nothing's for free,
E*             Emaddb13
 Nothing's for free.

    Am             Dsus2/A      Am
e|--0--0--0--0--0--0---|--0--0--0--0--0--0---|
B|--13-13-13-13-13-15--|--15-15-13-13-13-13--|
G|--14-14-14-14-14-14--|--14-14-14-14-14-14--|
D|--14-14-14-14-14-0---|--0--0--14-14-14-14--|
A|--0--0--0--0--0--0---|--0--0--0--0--0--0---|
E|---------------------|---------------------|

(with Above Riff):

Am         Dsus2/A Am
 Take it a-way     boys.

E*             Emaddb13
 Nothing's for free,
E*             Emaddb13
 Nothing's for free,
Am         Dsus2/A Am   E*
 Take it a-way     boys.

Bridge 3: (with Verse Riff)

   E5      G5 G#5 A5       D5      C#5 C5   B5 A#5  G
So turn it up and burn it, there's a   hole in your head,
A5*        E5   G5 G#5  A5    D5    C#5 C5    B5    A#5 G      A5*
 There's a hole in your head, where the birds can't,    sing a-long.

E5       G5  G#5 A5    D5  C#5 C5    B5   A#5 G
 Does anybod-y   know, how the story real-ly  goes?
A5*       E5    G5   G#5 A5       D5 C#5 C5  B5   A#5 C5  E5 A5*
 How this story real-ly  goes; or do we  all just     hum a -long?

Chorus 3:

C5                          Asus2
 Sell your soul and sign an autograph;
E
 Big bang baby it's a crash, crash, crash.

C5                 D5
 I wanna die but I gotta laugh;
E
 Orange crush mama is a laugh, laugh, laugh.

Break: (with Break Riffs)

E*             Emaddb13
 Nothing's for free,
E*             Emaddb13
 Nothing's for free,
Am         Dsus2/A Am
 Take it a-way     boys.

E*             Emaddb13
 Nothing's for free,
E*             Emaddb13
 Nothing's for free,
Am         Dsus2/A Am   E*
 Take it a-way     boys.

Bridge 4: (with Verse Riff)

   E5      G5 G#5 A5       D5      C#5 C5   B5 A#5  G
So turn it up and burn it, there's a   hole in your head,
A5*        E5   G5 G#5  A5    D5    C#5 C5    B5    A#5 G      A5*
 There's a hole in your head, where the birds can't,    sing a-long.

E5       G5  G#5 A5    D5  C#5 C5    B5   A#5 G
 Does anybod-y   know, how the story real-ly  goes?
A5*       E5    G5   G#5 A5       D5 C#5 C5  B5   A#5 C5  E5 A5*
 How this story real-ly  goes; or do we  all just     hum a -long?


CHORD DIAGRAMS:
---------------

   E5      G5      G#5     A5      D5      C#5

 EADGBE  EADGBE  EADGBE  EADGBE  EADGBE  EADGBE
 022xxx  355xxx  466xxx  577xxx  x577xx  x466xx

   C5      B5      A#5     G       A5*    Asus2

 EADGBE  EADGBE  EADGBE  EADGBE  EADGBE  EADGBE
 x355xx  x244xx  x133xx  320003  x022xx  x02200

   E         E*       Emaddb13      Am      Dsus2/A

 EADGBE  EA D G B E  EA D G B E  EAD G B E  EADG B E
 022100  0141413120  0141412130  x01414130  x0014150


Tabbed by Joel from cLuMsY, Bristol, England, 2005 (clumsyband@hotmail.com)


5...LADY PICTURE SHOW... by Stone Temple Pilots
------------------------.......................

*from 'Tiny Music...Songs from the Vatican Gift Shop' (1996)*


Intro:

    E   B         A          E   B       D
e|-------------|----------|-----------|----------------|
B|--5---4-4-4--|-----2-2--|--5---4-4--|--3-3-3--3-3-3--|
G|--4---4-4-4--|-----2-2--|--4---4-4--|--2-2-2--2-2-2--|
D|--6---4-4-4--|--2--2-2--|--6---4-4--|--4-4-4--4-4-4--|
A|------2-2-2--|--0--0-0--|------2-2--|----------------|
E|-------------|----------|-----------|----------------|

Verse 1:

    E  B          A
e|-------------|-------------|
B|--5--4--4-4--|------2---2--|
G|--4--4--4-4--|------2---2--|
D|--6--4--4-4--|--2---2---2--|
A|-------------|--0----------|
E|-------------|-------------|

(with Verse Riff):

E     B                 A
 Lady picture show, she hides behind the bedroom door,
E     B                 A
 Lady picture show, she hides behind the bedroom wall.
E             B                    A
 She hides be-cause she don't know nothin', don't know nothin' any more.
E            B                A
 She keeps a funny face, it's locked and bagged; it's just outside the door.

Chorus 1:

C#7                   F#m   B7                    E    G#7
 She doesn't know her name,  she doesn't know her face.
C#7                   F#m   B7                    E    B  A, E  B  Dmaj7
 She doesn't know her name,  she doesn't know her face.

Verse 2: (with Verse Riff)

E     B                 A
 Lady picture show, she hides behind the bedroom door,
E     B               A
 Lady picture girl, I think them boys don't like your show.
E     B                  A
 Lady picture show, them boys are gone; should just say no,
E             B                A
 Your wedding present's not so daisy picture perfect any more.
E     B                A
 Lady funny face, it's locked and bagged; it's just outside the door.

Chorus 2:

C#7                   F#m   B7                    E    G#7
 She doesn't know her name,  she doesn't know her face.
C#7                   F#m   B7                    E    B  A
 She doesn't know her name,  she doesn't know her face.

Bridge 1:

         E   B  A
Let them be...
         E   B  A
Let them be...
         E   B  Dmaj7
Let them be...

Solo:

    Amaj7      A6                      Amaj7  A6
e|----------------------------------|----------------------------|
B|------------------------12b14r12--|--14-/14-12--10h12p10p9-10--|
G|---------------11b13r11-----------|----------------------------|
D|--------9b11r9--------------------|----------------------------|
A|--7b9r7---------------------------|----------------------------|
E|----------------------------------|----------------------------|

    Amaj7    A6                   Amaj7          A6
e|-----------------------------|--------------------------12--|
B|--9\7-9b10r9--7b9p7---7-7----|--------12-------12-----------|
G|--------------------9-----9--|--11b13----11b13----11b13-----|
D|-----------------------------|------------------------------|
A|-----------------------------|------------------------------|
E|-----------------------------|------------------------------|

    E
e|-----12----12----12----12--|-----12----12----12----12--|
B|--16----14----12----14-----|--12----14----16----12-----|
G|---------------------------|---------------------------|
D|---------------------------|---------------------------|
A|---------------------------|---------------------------|
E|---------------------------|---------------------------|

Chorus 3: (Solo continues)

    C#m
e|-----12----12----12----12----12----12----12----12--|
B|--16----14----12----14----12----14----16----12-----|
G|---------------------------------------------------|
D|---------------------------------------------------|
A|---------------------------------------------------|
E|---------------------------------------------------|
          She doesn't know her...

    F#                                G#
e|-----------------9------------------------|
B|-----14----12b14---12-9-9-9-12-9----------|
G|--13----13-----------------------11b13-9--|
D|------------------------------------------|
A|------------------------------------------|
E|------------------------------------------|
    Name.

    A                                B
e|--------12-14b15---14b16r14r12---------|
B|-----12-------------------------14-12--|
G|--13-----------------------------------|
D|---------------------------------------|
A|---------------------------------------|
E|---------------------------------------|
    She     doesn't     know   her   face.

Verse 3: (with Verse Riff)

E     B                 A
 Lady picture show, she hides behind the bedroom door,
E     B                 A
 Lady picture show, she hides behind the bedroom wall.
E             B                    A
 She hides be-cause she don't know nothin', don't know nothin' any more.
E            B                A
 She keeps a funny face, it's locked and bagged; it's just outside the door.

Chorus 3:

C#7                   F#m   B7                    E    G#7
 She doesn't know her name,  she doesn't know her face.
C#7                   F#m   B7                    E    B  A
 She doesn't know her name,  she doesn't know her face.

Bridge 2:

         E   B  A
Let them be...
         E   B  A
Let them be...
         E   B  Dmaj7
Let them be...


CHORD DIAGRAMS:
---------------

   E       B       A       D       C#7     F#m     B7

 EADGBE  EADGBE  EADGBE  EADGBE  EADGBE  EADGBE  EADGBE
 x06540  x24442  x02220  xx4320  x46464  244222  x24445

   G#7    Dmaj7   Amaj7    A6      C#m     F#      G#

 EADGBE  EADGBE  EADGBE  EADGBE  EADGBE  EADGBE  EADGBE
 464544  x57675  5x665x  5x465x  x46654  244322  466544


Tabbed by Joel from cLuMsY, Bristol, England, 2005 (clumsyband@hotmail.com)


6...AND SO I KNOW... by Stone Temple Pilots
--------------------.......................

*from 'Tiny Music...Songs from the Vatican Gift Shop' (1996)*


Intro:

                Emaj7                      Em7
e|--------------------------|--------------7-7-7-7--7--|
B|--------------7-7-7-7--7--|--------------7-7-7-7--7--|
G|--------------8-8-8-8--8--|--------------7-7-7-7--7--|
D|--9/11--9/11--9-9-9-9--9--|--9/11--9/11--5-5-5-5--5--|
A|--9/11--9/11--7-7-7-7--7--|--9/11--9/11--7-7-7-7--7--|
E|--------------------------|--------------------------| (x2)

Verse 1: (with Intro Riff)

Emaj7           Em7
 And so I know, it's begun again.
Emaj7               Em7
 Never be the same, and with that I said;

Chorus 1:

Amaj7     Cmaj7              (Emaj7)
 Ne...ver ever be this way, a-gain.

Interlude:

                Emaj7                      Em7
e|--------------------------|--------------7-7-7-7--7--|
B|--------------7-7-7-7--7--|--------------7-7-7-7--7--|
G|--------------8-8-8-8--8--|--------------7-7-7-7--7--|
D|--9/11--9/11--9-9-9-9--9--|--9/11--9/11--5-5-5-5--5--|
A|--9/11--9/11--7-7-7-7--7--|--9/11--9/11--7-7-7-7--7--|
E|--------------------------|--------------------------|

Verse 2: (with Verse Riff)

Emaj7                 Em7
 Hold on till the end, like it's the last hello.
Emaj7                           Em7
 Whirlwinds and roller coasters, long grass making shapes hello.

Chorus 2:

Amaj7     Cmaj7                         (Emaj7)
 Di...sap-pearing, disappearing floating graves.

Interlude:

                Emaj7                      Em7
e|--------------------------|--------------7-7-7-7--7--|
B|--------------7-7-7-7--7--|--------------7-7-7-7--7--|
G|--------------8-8-8-8--8--|--------------7-7-7-7--7--|
D|--9/11--9/11--9-9-9-9--9--|--9/11--9/11--5-5-5-5--5--|
A|--9/11--9/11--7-7-7-7--7--|--9/11--9/11--7-7-7-7--7--|
E|--------------------------|--------------------------| (x2)

Bridge 1:

Amaj7   Cmaj7                    C#7       F#maj7
 Never, ever, ever, ever be this way, mmm...
F#m7        B7           (Emaj7)
 Never ever be this way a-gain...

Solo:

    Emaj7
e|------------------------------------------|
B|---------10-12----------------------------|
G|--11b13---------11b13-9-11b13-11p9-11b13--|
D|------------------------------------------|
A|------------------------------------------|
E|------------------------------------------|

    Em7
e|-------------------12--|------10------------------|
B|----------------12-----|--12------/12-12----------|
G|-------------12--------|------------------11------|
D|--------9-12-----------|----------------------12--|
A|-----10----------------|--------------------------|
E|--12-------------------|--------------------------|

    Emaj7
e|-------------------|------------------------|
B|-------------------|------------------------|
G|-------------------|------------------------|
D|-------------------|------------------------|
A|--14--12-14-12-11--|--12-11-----------------|
E|-------------------|---------/14--12-14-12--|

    Em7
e|--14--15--14--12--10/12--|------------------------------|
B|--11--12--11--9---7-/9---|-----------8-----10b11p10--8--|
G|-------------------------|--------7-----9---------------|
D|-------------------------|--/7-9------------------------|
A|-------------------------|------------------------------|
E|-------------------------|------------------------------|

    Emaj7                       Em7
e|--------/12--11--|--9------|--15-12-----------------------|
B|--10-9-----------|-----12--|--------12--------------------|
G|-----------------|---------|-----------12-----------------|
D|-----------------|---------|--------------16-12-----------|
A|-----------------|---------|--------------------14--------|
E|-----------------|---------|-----------------------12h15--|

e|-----------------12---------------------------------|
B|--------------12----12-11-11-12-15-12---------------|
G|--------11-12--------------------------14p12-14-12--|
D|-----12---------------------------------------------|
A|--14------------------------------------------------|
E|----------------------------------------------------|

    Emaj7
e|------------------------|--------12----------12--------------------|
B|------------------------|--12-12----12-15b17----15-12----12-15-----|
G|--14b16-14-12-------12--|-----------------------------14-------14--|
D|--------------14-14-----|------------------------------------------|
A|------------------------|------------------------------------------|
E|------------------------|------------------------------------------|

    Em7                                            (Amaj7)
e|---------------------------12-----|------------|--------------------|
B|------------------------------12--|------------|--------------------|
G|--12----14----12h13---------------|--11--------|--11h12p11p9--9--9--|
D|-----14----14--------14-----------|-----12-----|--------------------|
A|------------------------14--------|--------14--|--------------------|
E|----------------------------------|------------|--------------------|

Chorus 4:

Amaj7   Cmaj7                    C#7       F#maj7
 Never, ever, ever, ever be this way, mmm...
F#m7        B7           (Emaj7)
 Never ever be this way a-gain...

Interlude:

                Emaj7                      Em7
e|--------------------------|--------------7-7-7-7--7--|
B|--------------7-7-7-7--7--|--------------7-7-7-7--7--|
G|--------------8-8-8-8--8--|--------------7-7-7-7--7--|
D|--9/11--9/11--9-9-9-9--9--|--9/11--9/11--5-5-5-5--5--|
A|--9/11--9/11--7-7-7-7--7--|--9/11--9/11--7-7-7-7--7--|
E|--------------------------|--------------------------|

Verse 3: (with Verse Riff)

Emaj7           Em7
 And so I know, it's begun again.
Emaj7               Em7
 Never be the same, and with that I said.

Emaj7                     Em7
 (Campfire girls make me, feel alright),
Emaj7                     Em7
 (Campfire girls make me, feel alright).
Emaj7
 Campfire girls.


CHORD DIAGRAMS:
---------------

  Emaj7    Em7    Amaj7   Cmaj7    C#7   F#maj7   F#m7     B7

 EADGBE  EADGBE  EADGBE  EADGBE  EADGBE  EADGBE  EADGBE  EADGBE
 079897  079787  x02120  x35453  x46464  2x332x  2x22xx  x21202


Tabbed by Joel from cLuMsY, Bristol, England, 2005 (clumsyband@hotmail.com)


7...TRIPPIN' ON A HOLE IN A PAPER HEART... by Stone Temple Pilots
------------------------------------------.......................

*from 'Tiny Music...Songs from the Vatican Gift Shop' (1996)*


Intro:

    A#11
e|------|
B|--4---|
G|--2---|
D|--2---|
A|--0---|
E|------|

    F#5
e|-----------x-x-x-x-x-x-x-x-x-x-x-x--|-----------x-x-x-x-x-x-x-x-x-x-x-x--|
B|-----------x-x-x-x-x-x-x-x-x-x-x-x--|-----------x-x-x-x-x-x-x-x-x-x-x-x--|
G|-----------x-x-x-x-x-x-x-x-x-x-x-x--|-----------x-x-x-x-x-x-x-x-x-x-x-x--|
D|--4-4-4-4--x-x-x-x-x-x-x-x-x-x-x-x--|--4-4-4-4--x-x-x-x-x-x-x-x-x-x-x-x--|
A|--4-4-4-4--x-x-x-x-x-x-x-x-x-x-x-x--|--4-4-4-4--x-x-x-x-x-x-x-x-x-x-x-x--|
E|--2-2-2-2--x-x-x-x-x-x-x-x-x-x-x-x--|--2-2-2-2--x-x-x-x-x-x-x-x-x-x-x-x--|

    Asus2
e|----------------------------|----------------------------|
B|--0-0-0-0--0-0-0-0-0-0-0-0--|--0-0-0-0--0-0-0-0-0-0-0-0--|
G|--2-2-2-2--2-2-2-2-2-2-2-2--|--2-2-2-2--2-2-2-2-2-2-2-2--|
D|--2-2-2-2--2-2-2-2-2-2-2-2--|--2-2-2-2--2-2-2-2-2-2-2-2--|
A|--0-0-0-0--0-0-0-0-0-0-0-0--|--0-0-0-0--0-0-0-0-0-0-0-0--|
E|----------------------------|----------------------------|

Verse 1: (with Intro Riff)

F#5
 Don't cut out my paper heart, I ain't dyin' anyway.
Asus2
 Take a look at eye full towers, never trust them dirty liars.
F#5      F#7add4             F#5      F#7add4
 Sippin' lemon yellow booze, ol' Lead-belly sings the blues.
Asus2                                               (G#11)
 All dressed up on wedding day, keep on trippin' any-way.

Interlude:

   G#11 G5 G#11 G G#11   G5 G#11 G
e|--------------------|---------------|
B|--2---3--2----0--2--|--3--2----0-0--|
G|--0---0--0----0--0--|--0--0----0-0--|
D|--0---0--0----0--0--|--0--0----0-0--|
A|--------------------|---------------|
E|--------------------|---------------|

Chorus 1:

    Bm                                   A       Gmaj7
e|-------------------------------|------------2--2--2--2--|
B|-------3-3----3---3----3-------|------------2--3--2--0--|
G|--4-4--4-4--4-4-4-4--4-4-------|--4-0--2----0--0--0--0--|
D|--4-4--4-4--4-4-4-4--4-4--x-x--|--4-0--2-0--0--0--0--0--|
A|--2-2--2-2--2-2-2-2--2-2--x-x--|--2----0----x-----x-----|
E|-------------------------------|------------3-----3-----|

e|-----2-2--2--2-2-----------|
B|-----0-2--3--2-2-----0-----|
G|-----0-0--0--0-0--0--0-----|
D|-----0-0--0--0-0--0--0--0--|
A|----------x-------x--x--x--|
E|--3-------3-------3--3--3--|

(with Chorus Riff):

Bm                                      A       Gmaj7
 I am, I am, I said I'm not myself, but I'm not dead and I'm not for sale.

Bm                              A#11
 So keep your bankroll lottery, eat your salad day deathbed motorcade.

Verse 2: (with Verse Riff)

F#5
 Fake the heat and scratch the itch, skinned up knees and salty lips.
Asus2
 I'll breathe your life; Vicks Vapour life and when you binge I purge alike.
F#5
 Let go; it's harder holding on, one more trip and I'll be gone.
Asus2
 So keep your head up, keep it on, just a whisper; I'll be gone.
F#5     F#7add4            F#5           F#7add4
 Take a breath and make it big; it's the last you'll ever get.
Asus2                                                         (G#11)
 Break your neck with diamond noose, it's the last you'll ever choose.

Interlude:

   G#11 G5 G#11 G G#11   G5 G#11 G
e|--------------------|----------------|
B|--2---3--2----0--2--|--3--2----0--0--|
G|--0---0--0----0--0--|--0--0----0--0--|
D|--0---0--0----0--0--|--0--0----0--0--|
A|--------------------|----------------|
E|--------------------|----------------|

Chorus 2: (with Chorus Riff)

Bm                                      A       Gmaj7
 I am, I am, I said I'm not myself, but I'm not dead and I'm not for sale.
Bm                                  A      Gmaj7
 Hold me closer, closer; let me go, let me be, just let me be.
Bm                                      A       Gmaj7
 I am, I am, I said I'm not myself, but I'm not dead and I'm not for sale.

Bm                              A#11
 So keep your bankroll lottery, eat your salad day deathbed motorcade.

Solo:

    F#5
e|-----9-----9-------------|-----9----9------------|
B|--10----10---------------|--10---10--------------|
G|--------------11-9-11-9--|------------11-9-11-9--|
D|-------------------------|-----------------------|
A|-------------------------|-----------------------|
E|-------------------------|-----------------------|

e|------12------12------12--|------12------12------12--|
B|------12------12------12--|------12------12------12--|
G|--14------14------14------|--14------14------14------|
D|--------------------------|--------------------------|
A|--------------------------|--------------------------|
E|--------------------------|--------------------------|

    Asus2
e|--14--18------14--17------|--14--18------14--18------14--|
B|----------17----------17--|----------17----------17------|
G|--------------------------|------------------------------|
D|--------------------------|------------------------------|
A|--------------------------|------------------------------|
E|--------------------------|------------------------------|

e|--14--18------14--18------|--14--18------14--18--17--17--|
B|----------17----------17--|----------17----------14--14--|
G|--------------------------|------------------------------|
D|--------------------------|------------------------------|
A|--------------------------|------------------------------|
E|--------------------------|------------------------------|

    F#5
e|------------------------|--17-----17----17----17-----|
B|--19-19-19-19-19-19-19--|--19--19----19----19----19--|
G|--18-18-18-18-18-18-18--|----------------------------|
D|------------------------|----------------------------|
A|------------------------|----------------------------|
E|------------------------|----------------------------|

e|------------------------|--17-----17----17----17--------|
B|--19-19-19-19-19-19-19--|--19--19----19----19----19-17--|
G|--18-18-18-18-18-18-18--|-------------------------------|
D|------------------------|-------------------------------|
A|------------------------|-------------------------------|
E|------------------------|-------------------------------|

    Asus2
e|---------------------------------------------------|
B|--18-19-17-19-17-----------------------------------|
G|-----------------18-16-18-16-16\14----16-14--------|
D|-----------------------------------16-------16-14--|
A|---------------------------------------------------|
E|---------------------------------------------------|

e|------------------------------|
B|------------------------------|
G|------------------------------|
D|------------------------------|
A|--15-14-12-14-15-14-12-14-15--|
E|------------------------------|

    F#5            F#7add4
e|------------------------------------|
B|------------------------------------|
G|-------2----4----2----2----2--4--6--|
D|--2-4----4----4----4----4-----------|
A|------------------------------------|
E|------------------------------------|

    F#5         F#7add4
e|------------------------------------|
B|------------------------------------|
G|-------2----2----2----2----2--5--7--|
D|--2-4----4----4----4----4-----------|
A|------------------------------------|
E|------------------------------------|

    Asus2
e|-----------------------------|---------------------------------|
B|-----------------------------|--------------------------10-12--|
G|-----------------------------|--------6--9--6-----6--11--------|
D|-----------------------------|-----------------9---------------|
A|-----------------------------|--7--9---------------------------|
E|--2--4--5--5--7--9--5--7--9--|---------------------------------|

                                              (G#11)
e|----------------------------|--------------------------------|
B|--12-(13)-12-10-12-12-(13)--|--12-10-12-(13)-10-12-10-11-11--|
G|----------------------------|--------------------------------|
D|----------------------------|--------------------------------|
A|----------------------------|--------------------------------|
E|----------------------------|--------------------------------|

Interlude:

   G#11 G5 G#11 G G#11   G5 G#11 G
e|--------------------|----------------|
B|--2---3--2----0--2--|--3--2----0--0--|
G|--0---0--0----0--0--|--0--0----0--0--|
D|--0---0--0----0--0--|--0--0----0--0--|
A|--------------------|----------------|
E|--------------------|----------------|

Chorus 3: (with Chorus Riff)

Bm                                      A       Gmaj7
 I am, I am, I said I'm not myself, but I'm not dead and I'm not for sale.
Bm                                  A      Gmaj7
 Hold me closer, closer; let me go, let me be, just let me be.
Bm                                      A       Gmaj7
 I am, I am, I said I'm not myself, but I'm not dead and I'm not for sale.

Bm                              A#11
 So keep your bankroll lottery, eat your salad day deathbed motorcade.


CHORD DIAGRAMS:
---------------

  A#11     F#5    Asus2  F#7add4  G#11

 EADGBE  EADGBE  EADGBE  EADGBE  EADGBE
 x0224x  244xxx  x02200  xx4300  xx002x

   G5      G       Bm      A      Gmaj7

 EADGBE  EADGBE  EADGBE  EADGBE  EADGBE
 xx003x  000000  x24432  x02220  3x0032


Tabbed by Joel from cLuMsY, Bristol, England, 2005 (clumsyband@hotmail.com)


8...ART SCHOOL GIRL... by Stone Temple Pilots
----------------------.......................

*from 'Tiny Music...Songs from the Vatican Gift Shop' (1996)*


Intro:

    F#5    E5          D#/E          E5
e|------------------------|---------------|
B|------------------------|---------------|
G|------------------------|---------------|
D|--11--x--9-9-9-9--x--9--|--9--x--9-9-9--|
A|--9---x--7-7-7-7--x--6--|--6--x--6-7-7--|
E|------------------------|---------------| (x4)

Verse 1: (with Intro Riff)

F#5      E5         D#/E         E5
 I gotta girlfriend, she goes to art school,
F#5      E5         D#/E        E5
 I gotta art school girlfriend, yeah.
F#5      E5         D#/E       E5
 I gotta girlfriend, she gotta girlfriend,
F#5       E5         D#/E      E5
 We gotta girlfriend, then she gotta go.

F#5           E5        D#/E      E5
 She left her home from sweet Ala-bama,
F#5       E5           D#/E           E5
 Rose Ala-bama for the city, New York city, yeah.
F#5           E5        D#/E      E5
 She left her home from sweet Ala-bama,
F#5       E5           D#/E           E5
 Rose Ala-bama for the city, New York city, yeah.

Chorus 1:

    F#5*   A5  E5* F#5* E5*   F#5*   A5  E5* F#5* E5*
e|-------------------------|-------------------------|
B|-------------------------|-------------------------|
G|-------------------------|-------------------------|
D|--4-4-4--7---2---4----2--|--4-4-4--7---2---4----2--|
A|--4-4-4--7---2---4----2--|--4-4-4--7---2---4----2--|
E|--2-2-2--5---0---2----0--|--2-2-2--5---0---2----0--|

(with Chorus Riff):

           F#5          A5
I told you five or four times,
E5* F#5* E5* F#5          A5
 I  told you five or four times.
E5* F#5* E5* F#5          A5
 I  told you five or four times.
E5* F#5* E5* F#5          A5
 I  told you five or four times.

E5* F#5* E5* F#5          A5
 I  told you five or four times.
E5* F#5* E5* F#5          A5
 I  told you five or four times.
E5* F#5* E5* F#5          A5
 I  told you five or four times.
E5* F#5* E5* F#5          A5    E5* F#5* E5*
 I  told you five or four times.

Verse 2: (with Verse Riff)

F#5      E5         D#/E         E5
 I gotta girlfriend, she goes to parties,
F#5          E5            D#/E         E5
 Underground parties, Andy Warhol every-where.
F#5            E5      D#/E        E5
 She wears the leather, I wear the make up,
F#5          E5       D#/E           E5
 We'll never break up; been together for a month.

F#5           E5        D#/E      E5
 She left her home from sweet Ala-bama,
F#5       E5           D#/E           E5
 Rose Ala-bama for the city, New York city yeah.
F#5           E5        D#/E      E5
 She left her home from sweet Ala-bama,
F#5       E5           D#/E           E5
 Rose Ala-bama for the city, New York city, yeah.

Chorus 2: (with Chorus Riff)

           F#5          A5
I told you five or four times,
E5* F#5* E5* F#5          A5
 I  told you five or four times.
E5* F#5* E5* F#5          A5
 I  told you five or four times.
E5* F#5* E5* F#5          A5
 I  told you five or four times.

E5* F#5* E5* F#5          A5
 I  told you five or four times.
E5* F#5* E5* F#5          A5
 I  told you five or four times.
E5* F#5* E5* F#5          A5
 I  told you five or four times.
E5* F#5* E5* F#5          A5    E5* F#5* E5*
 I  told you five or four times.

Break:

E/D                      Bsus4      B7
 Da, da, da, da, da, da, da, da, da.

F#5           A5     E5* F#5* E5*
 Five or four times, I   told you,
F#5           A5     E5* F#5* E5*
 Five or four times, I   told you.

E/D                      Bsus4      B7
 Da, da, da, da, da, da, da, da, da.

F#5           A5     E5* F#5* E5*
 Five or four times, I   told you,
F#5           A5     E5* F#5* E5*
 Five or four times, I   told you.

E/D                      Bsus4       E5*
 Da, da, da, da, da, da, da, da, da, da, da, da.

Solo: (Over Chorus Riff)

   (F#5)  (A5)            (F#5)  (A5)
e|--19b20--19b<21>------|--19b20--19b<21>------|
B|------------------18--|------------------18--|
G|----------------------|----------------------|
D|----------------------|----------------------|
A|----------------------|----------------------|
E|----------------------|----------------------|

       (F#5) (A5)              (F#5)  (A5)
e|---------------------------|--12-14--------------------|
B|------17-19b22--19-17------|---------14-10------10h13--|
G|--18-------------------18--|---------------------------|
D|---------------------------|----------------11---------|
A|---------------------------|---------------------------|
E|---------------------------|---------------------------|

   (F#5) (A5)    (F#5) (A5)
e|-------------|------------5h8--|
B|-------------|-----------------|
G|-------------|--7b<9>--6-------|
D|--9b10--9-7--|-----------------|
A|-------------|-----------------|
E|-------------|-----------------|

   (F#5)       (A5)                     (F#5)  (A5)
e|--8h9-8h9-8h9p8---------------------|-------------|
B|----------------10p7----------------|-------------|
G|---------------------9p6------------|--2b3---p2\--|
D|-------------------------9p7--------|-------------|
A|-----------------------------9p7----|-------------|
E|---------------------------------9--|-------------|

Verse 3: (with Verse Riff):

F#5      E5         D#/E         E5
 I gotta girlfriend, she goes to art school,
F#5      E5         D#/E        E5
 I gotta art school girlfriend, yeah.
F#5      E5         D#/E       E5
 I gotta girlfriend, she gotta girlfriend,
F#5       E5         D#/E      E5
 We gotta girlfriend, then she gotta go.

F#5           E5        D#/E      E5
 She left her home from sweet Ala-bama,
F#5       E5           D#/E           E5
 Rose Ala-bama for the city, New York city, yeah.
F#5           E5        D#/E      E5
 She left her home from sweet Ala-bama,
F#5       E5           D#/E           E5
 Rose Ala-bama for the city, New York city, yeah.

Chorus 3: (with Chorus Riff)

F#5           A5
 Five or four times,
E5* F#5* E5* F#5          A5
 I  told you five or four times.
E5* F#5* E5* F#5          A5
 I  told you five or four times.
E5* F#5* E5* F#5          A5
 I  told you five or four times.

E5* F#5* E5* F#5          A5
 I  told you five or four times.
E5* F#5* E5* F#5          A5
 I  told you five or four times.
E5* F#5* E5* F#5          A5
 I  told you five or four times.
E5* F#5* E5* F#5          A5
 I  told you five or four times.

Coda:

(E/D)
 I told you five or four times, I told you five or four times...

(Fade)


CHORD DIAGRAMS:
---------------

   F#5      E5     D#/E     F#5*    A5      E5*     E/D    Bsus4    B7

 EAD GBE  EADGBE  EADGBE  EADGBE  EADGBE  EADGBE  EADGBE  EADGBE  EADGBE
 x911xxx  079xxx  x69xxx  244xxx  577xxx  022xxx  xx0100  x2445x  x24242


Tabbed by Joel from cLuMsY, Bristol, England, 2005 (clumsyband@hotmail.com)


9...ADHESIVE... by Stone Temple Pilots
---------------.......................

*from 'Tiny Music...Songs from the Vatican Gift Shop' (1996)*


Intro:

    A    A6      Amaj7  A6                     Amaj7
e|------------|----------------|------------|--------------|
B|--5-5--7-7--|--9-9----7-7-7--|--7-7--7-7--|--9-9--9-9-9--|
G|--6-6--6-6--|--9-9----6-6-6--|--6-6--6-6--|--9-9--9-9-9--|
D|--7-7--7-7--|--7-7----7-7-7--|--7-7--7-7--|--7-7--7-7-7--|
A|--0-0--0-0--|--0-0----0-0-0--|--0-0--0-0--|--0-0--0-0-0--|
E|------------|----------------|------------|--------------|

    Emaj7add6       Emaj9add6
e|--0-0--0--0-0--|--2-2--2-2-2--|--2-2--2--2-2--|--2-2--2-2-2--|
B|--4-4--4--4-4--|--4-4--4-4-4--|--4-4--4--4-4--|--4-4--4-4-4--|
G|--4-4--4--4-4--|--4-4--4-4-4--|--4-4--4--4-4--|--4-4--4-4-4--|
D|--2-2--2--2-2--|--2-2--2-2-2--|--2-2--2--2-2--|--2-2--2-2-2--|
A|--4-4--4--4-4--|--4-4--4-4-4--|--4-4--4--4-4--|--4-4--4-4-4--|
E|--0-0--0--0-0--|--0-0--0-0-0--|--0-0--0--0-0--|--0-0--0-0-0--|

Verse 1: (with Intro Riff)

A   A6     Amaj7   A6                           Amaj7
 My friend blue he runs the show, with hot pink purple china glow.
Emaj7add6   Emaj9add6
 His family trees are moulded; no longer grows in summer.

A   A6       Amaj7  A6                  Amaj7
 He holds it closer lets it go, picks a fruit but keeps it whole.
Emaj7add6       Emaj9add6
 Can't keep the submarining; keep the light from fading.

Chorus 1:

F#m
 Grab the hate and drown it out,
                          A*            B
Grab the beat and drum it out; it's all so confusing.

Verse 2: (with Verse Riff)

A  A6         Amaj7    A6                  Amaj7
    Ain't the same for you and me, cartoon-like reality.
Emaj7add6 Emaj9add6
 Dogs and cats and children; deepest wound is hidden.
A  A6         Amaj7    A6               Amaj7
    Ain't the same for you and me, coma-tose commodity.
Emaj7add6  Emaj9add6
 The super-heroes dyin'; all the children cryin'.

A  A6        Amaj7   A6                  Amaj7
   Sell more records If I'm dead, purple flowers once again.
Emaj7add6  Emaj9add6
 Hope it's sooner, hope it's near, corporate records' fiscal year.

A  A6    Amaj7 A6         Amaj7       Emaj7add6  Emaj9add6
    Do...wn,   the river, down the ri-ver.

Verse 3: (with Verse Riff)

A  A6     Amaj7  A6
   Flyin' high a-cross the plain, purple flowers ease the pain.
Emaj7add6   Emaj9add6
 Here, now, have a listen, ain't the song you're missin'.

A  A6    Amaj7 A6         Amaj7       Emaj7add6  Emaj9add6
    Do...wn,   the river, down the ri-ver.

Chorus 2:

F#m                                                   A*
 Have a listen, lend an ear, here's a song now if you care.
               B
All just hum a-long; words don't matter any more.

F#m
 Grab the hate and drown it out,
                          A*            B
Grab the beat and drum it out; it's all so confusing.

Bridge 1:

A/E E   A/E E    A    E         Cmaj7     D/C
     Ad-he -sive love, adhesive, adhesive love.
A/E E   A/E E    A    E         Cmaj7     Dadd9/C
     Ad-he -sive love, adhesive, adhesive love.

Interlude:

    D/B                        Bb                     Dsus2
e|---------------|----------|----------|-----------|--0--|
B|--3---x--3--7--|--7-7--7--|--6--6-6--|--6-6---6--|--3--|
G|--2---x--2--7--|--7-7--7--|--7--7-7--|--7-7---7--|--2--|
D|--0---x--0--7--|--7-7--7--|--8--8-8--|--8-8---8--|--0--|
A|--2---x--2-----|----------|--8--8-8--|--8-8---8--|-----|
E|------------7--|--7-7--7--|--6--6-6--|--6-6---6--|-----|

Trumpet Solo: (with Verse Riff)

A  A6  Amaj7  A6  Amaj7, Emaj7add6  Emaj9add6 (x2)

Verse 4: (with Verse Riff)

A  A6     Amaj7  A6
   Flyin' high a-cross the plain, purple flowers ease the pain.
Emaj7add6   Emaj9add6
 Here, now, have a listen, ain't the song you're missin'.

A  A6    Amaj7 A6         Amaj7       Emaj7add6  Emaj9add6
    Do...wn,   the river, down the ri-ver.

Chorus 3:

F#m                                                      A*
 Stitch the womb and wet the bed, with a whisper I'll be dead.
              B
Don't let the living die yet!

F#m
 Grab the hate and drown it out,
                          A*            B
Grab the beat and drum it out; it's all so confusing.

Bridge 2:

A/E E   A/E E    A    E         Cmaj7     D/C
     Ad-he -sive love, adhesive, adhesive love.
A/E E   A/E E    A    E         Cmaj7     Dadd9/C
     Ad-he -sive love, adhesive, adhesive love.

Outro:

    D/B                        Bb                     Dsus2
e|---------------|----------|----------|-----------|--0--|
B|--3---x--3--7--|--7-7--7--|--6--6-6--|--6-6---6--|--3--|
G|--2---x--2--7--|--7-7--7--|--7--7-7--|--7-7---7--|--2--|
D|--0---x--0--7--|--7-7--7--|--8--8-8--|--8-8---8--|--0--|
A|--2---x--2-----|----------|--8--8-8--|--8-8---8--|-----|
E|------------7--|--7-7--7--|--6--6-6--|--6-6---6--|-----|


CHORD DIAGRAMS:
---------------

   A       A6     Amaj7 Emaj7add6 Emaj9add6   F#m     A*      B

 EADGBE  EADGBE  EADGBE  EADGBE    EADGBE   EADGBE  EADGBE  EADGBE
 x07650  x07670  x0799x  042440    042442   244222  577655  799877

   A/E     E      Cmaj7    D/C   Dadd9/C   D/B     Bb    Dsus2

 EADGBE  EADGBE  EADGBE  EADGBE  EADGBE  EADGBE  EADGBE  EADGBE
 x77655  x76454  x32000  x34232  x34230  x30230  688766  xx0230


Tabbed by Joel from cLuMsY, Bristol, England, 2005 (clumsyband@hotmail.com)


10...RIDE THE CLICHÉ... by Stone Temple Pilots
-----------------------.......................

*from 'Tiny Music...Songs from the Vatican Gift Shop' (1996)*


Intro:

    G
e|--------------|----------------|----------------|
B|--------------|----------------|----------------|
G|--4-4--4-4-4--|--4-4-4--4-4-4--|--4-4-4--4-4-4--|
D|--5-5--5-5-5--|--5-5-5--5-5-5--|--5-5-5--5-5-5--|
A|--5-5----5-5--|----5-5----5-5--|--5-5-5--5-5-5--|
E|--3-3----3-3--|----3-3----3-3--|--3-3-3--3-3-3--|

e|----------------------|--------------------|
B|----------------------|--------------------|
G|----------------------|--------------------|
D|---------2------------|--------------------|
A|--0-4-5-----5-4-5--5--|--4-2-0--------0-0--|
E|----------------------|---------3--3-------|

         G5 E5 G5    E5 G5 E5 G5   E5 G5
e|----------------|----------------------|
B|----------------|----------------------|
G|----------------|----------------------|
D|----------------|----------------------|
A|-------5--2--5--|--2--5--2--5-5--2--5--|
E|--0-0--3--0--3--|--0--3--0--3-3--0--3--|

Verse 1:

e|----------------------|--------------------|
B|----------------------|--------------------|
G|----------------------|--------------------|
D|---------2------------|--------------------|
A|--0-4-5-----5-4-5--5--|--4-2-0--------0-0--|
E|----------------------|---------3--3-------|

         G5 E5 G5    E5 G5 E5 G5   E5 G5
e|----------------|----------------------|
B|----------------|----------------------|
G|----------------|----------------------|
D|----------------|----------------------|
A|-------5--2--5--|--2--5--2--5-5--2--5--|
E|--0-0--3--0--3--|--0--3--0--3-3--0--3--|

(with Verse Riff):

She, no wait, but she, know me.
Intake, purge, it's my, disease.

Chorus 1:

A                      D/A
 Hold me closer let me be,
A                       G
 Hold me closer, let me go away.
A                        D/A
 Barely know you know my name,
A                            F
 Trip the witch and ride the shame.

Verse 2: (with Verse Riff)

Just because, you're so, clichéd.
It don't mean, you won't, get paid.

Chorus 2:

A                      D/A
 Hold me closer let me be,
A                       G
 Hold me closer, let me go away.
A                        D/A
 Barely know you know my name,
A                            F
 Trip the witch and ride the shame.

Solo: (Over Verse Riff)

e|--8h9-9-10-11-12----8h9-9--|--10-11-12----8h9-9-10-12--|
B|-----------------10--------|-----------10--------------|
G|---------------------------|---------------------------|
D|---------------------------|---------------------------|
A|---------------------------|---------------------------|
E|---------------------------|---------------------------|

e|--10----9----------------|-----------------|-------------|
B|-----12---10-12----10----|--8--------8-----|--8----8-----|
G|----------------12----9--|----7-9/11---11--|----11---11--|
D|-------------------------|-----------------|-------------|
A|-------------------------|-----------------|-------------|
E|-------------------------|-----------------|-------------|

e|-----------------------|----------------|
B|--5-8-8--5-8-8--8-7-7--|--5-7b8---------|
G|-----------------------|--------7--5----|
D|-----------------------|-------------7--|
A|-----------------------|----------------|
E|-----------------------|----------------|

e|-------------------|--------------------|
B|-------------------|--------5-8-5-7/10--|
G|----------------4--|--6---6-------------|
D|--5-----------5----|----7---------------|
A|----7-5-7-5-7------|--------------------|
E|-------------------|--------------------|

e|--9b10r9----------9b10--|--r9------9b10---|
B|----------10---10-------|------10---------|
G|------------------------|-----------------|
D|------------------------|-----------------|
A|------------------------|-----------------|
E|------------------------|-----------------|

e|--------12----12----12-----|--------12-11-10-9-----|
B|--13/14----14----14----14--|--13/14----13------10--|
G|---------------------------|-----------------------|
D|---------------------------|-----------------------|
A|---------------------------|-----------------------|
E|---------------------------|-----------------------|

e|------------------9--|--12-9---|-------------------------|
B|--12-10-12--10-12----|---------|-------------------------|
G|---------------------|---------|------------------4b6r4--|
D|---------------------|---------|----4-5-7-5-4-5-7--------|
A|---------------------|---------|--5----------------------|
E|---------------------|---------|-------------------------|

    Cadd9
e|----------0-----0--|------0----0---0----|
B|--------3---3-3----|----3---3--3-3---3--|
G|------0------------|--0--------0--------|
D|----2--------------|--------------------|
A|--3----------------|--------------------|
E|-------------------|--------------------|

e|------0----0---0----|------0----0---0----|
B|----3---3--3-3---3--|----3---3--3-3---3--|
G|--0--------0--------|--0--------0--------|
D|--------------------|--------------------|
A|--------------------|--------------------|
E|--------------------|--------------------|

    F
e|--------------|----------------|
B|--------------|----------------|
G|--2-2--2---2--|--2--2---2-2-2--|
D|--3-3--3---3--|--3--3---3-3-3--|
A|--3-3--3---3--|--3--3---3-3-3--|
E|--1-1--1---1--|--1--1---1-1-1--|

Chorus 3:

A       D/A       A        G
 She no wait, but she know me.
A       D/A         A     F
 Intake purge, it's my di-sease.

Chorus 4:

A                      D/A
 Hold me closer let me be,
A                       G
 Hold me closer, let me go away.
A                        D/A
 Barely know you know my name,
A                           (F)
 Trip the witch and ride the shame.

Outro:

    F
e|--------------|---------------|-----------|---------|
B|--------------|---------------|-----------|---------|
G|--2-2--2---2--|--2-2---2-2-2--|--2-2---2--|--2--2---|
D|--3-3--3---3--|--3-3---3-3-3--|--3-3---3--|--3--3---|
A|--3-3--3---3--|--3-3---3-3-3--|--3-3---3--|--3--3---|
E|--1-1--1---1--|--1-1---1-1-1--|--1-1---1--|--1--1---|


CHORD DIAGRAMS:
---------------

   G       G5      E5      A       D/A     F      Cadd9

 EADGBE  EADGBE  EADGBE  EADGBE  EADGBE  EADGBE  EADGBE
 355433  355xxx  022xxx  x07655  x07775  133211  x32030


Tabbed by Joel from cLuMsY, Bristol, England, 2005 (clumsyband@hotmail.com)


11...DAISY... by Stone Temple Pilots
-------------.......................

*from 'Tiny Music...Songs from the Vatican Gift Shop' (1996)*


Verse 1:

*(Guitar 1):

    Em7                    B
e|--7-7--x--7--x--7--x--|--7-7--x--7--x--7--x--|
B|--8-8--x--8--x--8--x--|--7-7--x--7--x--7--x--|
G|--7-7--x--7--x--7--x--|--8-8--x--8--x--8--x--|
D|--9-9--x--9--x--9--x--|--9-9--x--9--x--9--x--|
A|--7-7--x--7--x--7--x--|--9-9--x--9--x--9--x--|
E|----------------------|--7-7--x--7--x--7--x--|

*(Guitar 2): (with Slide)

     Em7       B
e|----------------|-------------|
B|--/5---7/8---7--|---8/10---8--|
G|----------------|-------------|
D|----------------|-------------|
A|----------------|-------------|
E|----------------|-------------|

*(Guitar 1):

    Em7                    B
e|--7-7--x--7--x--7--x--|--7-7--x--7--x--7--x--|
B|--8-8--x--8--x--8--x--|--7-7--x--7--x--7--x--|
G|--7-7--x--7--x--7--x--|--8-8--x--8--x--8--x--|
D|--9-9--x--9--x--9--x--|--9-9--x--9--x--9--x--|
A|--7-7--x--7--x--7--x--|--9-9--x--9--x--9--x--|
E|----------------------|--7-7--x--7--x--7--x--|

*(Guitar 2): (with Slide)

   Em7            B
e|-------------|-----------|
B|---10/12--7--|----0/8\7--|
G|-------------|-----------|
D|-------------|-----------|
A|-------------|-----------|
E|-------------|-----------|

*(Guitar 1):

    Cmaj7                  Am
e|-------x-----x-----x--|--5-5--5-5-5--5--|
B|--8-8--x--8--x--8--x--|--5-5--5-5-5--5--|
G|--9-9--x--9--x--9--x--|--5-5--5-5-5--5--|
D|--9-9--x--9--x--9--x--|--7-7--7-7-7--7--|
A|--x-x--x--x--x--x--x--|--7-7--7-7-7--7--|
E|--8-8--x--8--x--8--x--|--5-5--5-5-5--5--|

*(Guitar 2): (with Slide)

     Cmaj7          Am
e|----------------|----------------|
B|--/5---7/8---7--|---8/10--12-12--|
G|----------------|----------------|
D|----------------|----------------|
A|----------------|----------------|
E|----------------|----------------|

*(Guitar 1):

    B7                     B7#5    B7
e|--2-2--x--2--x--2--x--|--3-3--x--2-2--x--|
B|--0-0--x--0--x--0--x--|--0-0--x--0-0--x--|
G|--2-2--x--2--x--2--x--|--2-2--x--2-2--x--|
D|--1-1--x--1--x--1--x--|--1-1--x--1-1--x--|
A|--2-2--x--2--x--2--x--|--2-2--x--2-2--x--|
E|----------------------|------------------|

Verse 2:

*(Guitar 1):

    Em7                    B
e|--7-7--x--7--x--7--x--|--7-7--x--7--x--7--x--|
B|--8-8--x--8--x--8--x--|--7-7--x--7--x--7--x--|
G|--7-7--x--7--x--7--x--|--8-8--x--8--x--8--x--|
D|--9-9--x--9--x--9--x--|--9-9--x--9--x--9--x--|
A|--7-7--x--7--x--7--x--|--9-9--x--9--x--9--x--|
E|----------------------|--7-7--x--7--x--7--x--|

*(Guitar 2): (with Slide)

     Em7       B
e|----------------|-------------|
B|--/5---7/8---7--|---8/10---8--|
G|----------------|-------------|
D|----------------|-------------|
A|----------------|-------------|
E|----------------|-------------|

*(Guitar 1):

    Em7                    B
e|--7-7--x--7--x--7--x--|--7-7--x--7--x--7--x--|
B|--8-8--x--8--x--8--x--|--7-7--x--7--x--7--x--|
G|--7-7--x--7--x--7--x--|--8-8--x--8--x--8--x--|
D|--9-9--x--9--x--9--x--|--9-9--x--9--x--9--x--|
A|--7-7--x--7--x--7--x--|--9-9--x--9--x--9--x--|
E|----------------------|--7-7--x--7--x--7--x--|

*(Guitar 2): (with Slide)

   Em7            B
e|-------------|-----------|
B|---10/12--7--|----0/8\7--|
G|-------------|-----------|
D|-------------|-----------|
A|-------------|-----------|
E|-------------|-----------|

*(Guitar 1):

    Cmaj7                  Am
e|-------x-----x-----x--|--5-5--5-5-5--5--|
B|--8-8--x--8--x--8--x--|--5-5--5-5-5--5--|
G|--9-9--x--9--x--9--x--|--5-5--5-5-5--5--|
D|--9-9--x--9--x--9--x--|--7-7--7-7-7--7--|
A|--x-x--x--x--x--x--x--|--7-7--7-7-7--7--|
E|--8-8--x--8--x--8--x--|--5-5--5-5-5--5--|

*(Guitar 2): (with Slide)

     Cmaj7          Am
e|----------------|----------------|
B|--/5---7/8---7--|---8/10--12-12--|
G|----------------|----------------|
D|----------------|----------------|
A|----------------|----------------|
E|----------------|----------------|

*(Guitar 1):

    B7                     B7#5    B7
e|--2-2--x--2--x--2--x--|--3-3--x--2-2--x--|
B|--0-0--x--0--x--0--x--|--0-0--x--0-0--x--|
G|--2-2--x--2--x--2--x--|--2-2--x--2-2--x--|
D|--1-1--x--1--x--1--x--|--1-1--x--1-1--x--|
A|--2-2--x--2--x--2--x--|--2-2--x--2-2--x--|
E|----------------------|------------------|

Bridge 1:

*(Guitar 1):

    Em7                    D
e|--7-7--x--7--x--7--x--|-------x-----x-----x--|
B|--8-8--x--8--x--8--x--|--7-7--x--7--x--7--x--|
G|--7-7--x--7--x--7--x--|--7-7--x--7--x--7--x--|
D|--9-9--x--9--x--9--x--|--7-7--x--7--x--7--x--|
A|--7-7--x--7--x--7--x--|--5-5--x--5--x--5--x--|
E|----------------------|----------------------|

*(Guitar 2): (with Slide)

     Em7               D
e|------------------|-------------|
B|--/12---10\8---7--|---8/10---9--|
G|------------------|-------------|
D|------------------|-------------|
A|------------------|-------------|
E|------------------|-------------|

*(Guitar 1):

    E
e|-------x-----x-----x--|------------------|
B|--9-9--x--9--x--9--x--|--9-9-9-9--9-9-9--|
G|--9-9--x--9--x--9--x--|--9-9-9-9--9-9-9--|
D|--9-9--x--9--x--9--x--|--9-9-9-9--9-9-9--|
A|--7-7--x--7--x--7--x--|--7-7-7-7--7-7-7--|
E|----------------------|------------------|

*(Guitar 1):

    Em7                    D
e|--7-7--x--7--x--7--x--|-------x-----x-----x--|
B|--8-8--x--8--x--8--x--|--7-7--x--7--x--7--x--|
G|--7-7--x--7--x--7--x--|--7-7--x--7--x--7--x--|
D|--9-9--x--9--x--9--x--|--7-7--x--7--x--7--x--|
A|--7-7--x--7--x--7--x--|--5-5--x--5--x--5--x--|
E|----------------------|----------------------|

*(Guitar 2): (with Slide)

     Em7               D
e|------------------|--------------|
B|--/12---10\8---7--|---8/10---12--|
G|------------------|--------------|
D|------------------|--------------|
A|------------------|--------------|
E|------------------|--------------|

*(Guitar 1):

    E
e|-------x-----x-----x--|------------------|
B|--9-9--x--9--x--9--x--|--9-9-9-9--9-9-9--|
G|--9-9--x--9--x--9--x--|--9-9-9-9--9-9-9--|
D|--9-9--x--9--x--9--x--|--9-9-9-9--9-9-9--|
A|--7-7--x--7--x--7--x--|--7-7-7-7--7-7-7--|
E|----------------------|------------------|

*(Guitar 1):

    Em7                    D13
e|--7-7--x--7--x--7--x--|--7-7--x--7--x--7--x--|
B|--8-8--x--8--x--8--x--|--7-7--x--7--x--7--x--|
G|--7-7--x--7--x--7--x--|--5-5--x--5--x--5--x--|
D|--9-9--x--9--x--9--x--|--7-7--x--7--x--7--x--|
A|--7-7--x--7--x--7--x--|----------------------|
E|----------------------|----------------------|

*(Guitar 2): (with Slide)

     Em7               D13
e|------------------|-------------|
B|--/12---10\8---7--|---8/10---8--|
G|------------------|-------------|
D|------------------|-------------|
A|------------------|-------------|
E|------------------|-------------|

*(Guitar 1):

    G                      B7
e|--3-3--x--3--x--3--x--|--2-2--2-2--2-2-2--|
B|--3-3--x--3--x--3--x--|--0-0--0-0--0-0-0--|
G|--4-4--x--4--x--4--x--|--2-2--2-2--2-2-2--|
D|--5-5--x--5--x--5--x--|--1-1--1-1--1-1-1--|
A|--5-5--x--5--x--5--x--|--2-2--2-2--2-2-2--|
E|--3-3--x--3--x--3--x--|-------------------|

Verse 3:

*(Guitar 1):

    Em7                    B
e|--7-7--x--7--x--7--x--|--7-7--x--7--x--7--x--|
B|--8-8--x--8--x--8--x--|--7-7--x--7--x--7--x--|
G|--7-7--x--7--x--7--x--|--8-8--x--8--x--8--x--|
D|--9-9--x--9--x--9--x--|--9-9--x--9--x--9--x--|
A|--7-7--x--7--x--7--x--|--9-9--x--9--x--9--x--|
E|----------------------|--7-7--x--7--x--7--x--|

*(Guitar 2): (with Slide)

     Em7       B
e|----------------|-------------|
B|--/5---7/8---7--|---8/10---8--|
G|----------------|-------------|
D|----------------|-------------|
A|----------------|-------------|
E|----------------|-------------|

*(Guitar 1):

    Em7                    B
e|--7-7--x--7--x--7--x--|--7-7--x--7--x--7--x--|
B|--8-8--x--8--x--8--x--|--7-7--x--7--x--7--x--|
G|--7-7--x--7--x--7--x--|--8-8--x--8--x--8--x--|
D|--9-9--x--9--x--9--x--|--9-9--x--9--x--9--x--|
A|--7-7--x--7--x--7--x--|--9-9--x--9--x--9--x--|
E|----------------------|--7-7--x--7--x--7--x--|

*(Guitar 2): (with Slide)

   Em7            B
e|-------------|-----------|
B|---10/12--7--|----0/8\7--|
G|-------------|-----------|
D|-------------|-----------|
A|-------------|-----------|
E|-------------|-----------|

*(Guitar 1):

    Cmaj7                  Am
e|-------x-----x-----x--|--5-5--5-5-5--5--|
B|--8-8--x--8--x--8--x--|--5-5--5-5-5--5--|
G|--9-9--x--9--x--9--x--|--5-5--5-5-5--5--|
D|--9-9--x--9--x--9--x--|--7-7--7-7-7--7--|
A|--x-x--x--x--x--x--x--|--7-7--7-7-7--7--|
E|--8-8--x--8--x--8--x--|--5-5--5-5-5--5--|

*(Guitar 2): (with Slide)

     Cmaj7          Am
e|----------------|----------------|
B|--/5---7/8---7--|---8/10--12-12--|
G|----------------|----------------|
D|----------------|----------------|
A|----------------|----------------|
E|----------------|----------------|

*(Guitar 1):

    B7                     B7#5    B7
e|--2-2--x--2--x--2--x--|--3-3--x--2-2--x--|
B|--0-0--x--0--x--0--x--|--0-0--x--0-0--x--|
G|--2-2--x--2--x--2--x--|--2-2--x--2-2--x--|
D|--1-1--x--1--x--1--x--|--1-1--x--1-1--x--|
A|--2-2--x--2--x--2--x--|--2-2--x--2-2--x--|
E|----------------------|------------------|

Bridge 2:

*(Guitar 1):

    Em7                    D
e|--7-7--x--7--x--7--x--|-------x-----x-----x--|
B|--8-8--x--8--x--8--x--|--7-7--x--7--x--7--x--|
G|--7-7--x--7--x--7--x--|--7-7--x--7--x--7--x--|
D|--9-9--x--9--x--9--x--|--7-7--x--7--x--7--x--|
A|--7-7--x--7--x--7--x--|--5-5--x--5--x--5--x--|
E|----------------------|----------------------|

*(Guitar 2): (with Slide)

     Em7               D
e|------------------|-------------|
B|--/12---10\8---7--|---8/10---9--|
G|------------------|-------------|
D|------------------|-------------|
A|------------------|-------------|
E|------------------|-------------|

*(Guitar 1):

    E
e|-------x-----x-----x--|------------------|
B|--9-9--x--9--x--9--x--|--9-9-9-9--9-9-9--|
G|--9-9--x--9--x--9--x--|--9-9-9-9--9-9-9--|
D|--9-9--x--9--x--9--x--|--9-9-9-9--9-9-9--|
A|--7-7--x--7--x--7--x--|--7-7-7-7--7-7-7--|
E|----------------------|------------------|

*(Guitar 1):

    Em7                    D
e|--7-7--x--7--x--7--x--|-------x-----x-----x--|
B|--8-8--x--8--x--8--x--|--7-7--x--7--x--7--x--|
G|--7-7--x--7--x--7--x--|--7-7--x--7--x--7--x--|
D|--9-9--x--9--x--9--x--|--7-7--x--7--x--7--x--|
A|--7-7--x--7--x--7--x--|--5-5--x--5--x--5--x--|
E|----------------------|----------------------|

*(Guitar 2): (with Slide)

     Em7               D
e|------------------|--------------|
B|--/12---10\8---7--|---8/10---12--|
G|------------------|--------------|
D|------------------|--------------|
A|------------------|--------------|
E|------------------|--------------|

*(Guitar 1):

    E
e|-------x-----x-----x--|------------------|
B|--9-9--x--9--x--9--x--|--9-9-9-9--9-9-9--|
G|--9-9--x--9--x--9--x--|--9-9-9-9--9-9-9--|
D|--9-9--x--9--x--9--x--|--9-9-9-9--9-9-9--|
A|--7-7--x--7--x--7--x--|--7-7-7-7--7-7-7--|
E|----------------------|------------------|

*(Guitar 1):

    Em7                    D13
e|--7-7--x--7--x--7--x--|--7-7--x--7--x--7--x--|
B|--8-8--x--8--x--8--x--|--7-7--x--7--x--7--x--|
G|--7-7--x--7--x--7--x--|--5-5--x--5--x--5--x--|
D|--9-9--x--9--x--9--x--|--7-7--x--7--x--7--x--|
A|--7-7--x--7--x--7--x--|----------------------|
E|----------------------|----------------------|

*(Guitar 2): (with Slide)

     Em7               D13
e|------------------|-------------|
B|--/12---10\8---7--|---8/10---8--|
G|------------------|-------------|
D|------------------|-------------|
A|------------------|-------------|
E|------------------|-------------|

*(Guitar 1):

    G                      B7
e|--3-3--x--3--x--3--x--|--2----2--2---|
B|--3-3--x--3--x--3--x--|--0--0--------|
G|--4-4--x--4--x--4--x--|--2-----------|
D|--5-5--x--5--x--5--x--|--1-----------|
A|--5-5--x--5--x--5--x--|--2-----------|
E|--3-3--x--3--x--3--x--|--------------|


CHORD DIAGRAMS:
---------------

   Em7     B      Cmaj7    Am      B7

 EADGBE  EADGBE  EADGBE  EADGBE  EADGBE
 x79787  799877  8x998x  577555  x21202

   B7#5     D      E       D13     G

 EADGBE  EADGBE  EADGBE  EADGBE  EADGBE
 021203  x57775  x79997  xx7577  355433


Tabbed by Joel from cLuMsY, Bristol, England, 2005 (clumsyband@hotmail.com)


12...SEVEN CAGED TIGERS... by Stone Temple Pilots
--------------------------.......................

*from 'Tiny Music...Songs from the Vatican Gift Shop' (1996)*


Intro:

G5  Bm  E, D5  C  B7

Verse 1:

Em        Bm              Cmaj7
 Pass the time kickin' as time rips by,
G        Bm            E
 Neither goose nor the gander fly.
G      Bm                    E
 Buy a minute, spend an hour burnin', burnin',
D       C                 B7
 Take a peek as the model earns it, earns it.

Em      Bm               Cmaj7
 Walk a mile as it keeps crawlin', crawlin',
G          Bm          E
 Clean the politician; wash him with everpure.

Chorus 1:

Eb                  Bbmaj7
 So the answer gets harder, harder,
Eb                       Bbmaj7
 And the truth's getting farther and farther.
Eb                    Bbmaj7
 And the bottle keeps churnin' and churnin',
Eb                  Bbmaj7  Bm7
 Seven caged tigers fly by.

Verse 2:

G        Bm                 E
 Wastin' time chasin' those cows that fly,
D             C           B7
 Churnin' out all of that butterfly sugar boost.
Em         Bm                 Cmaj7
 Track the blade as it sweeps downward and onward,
G       Bm               E
 Take a pill; it'll kill martyrs, martyrs.

G         Bm              E
 Pass the time kickin' as time kicks by,
D            C            B7
 Pass the um-bilical cord down for a fly by.
Em                      Bm         Cmaj7
 Take a sneak while the model, she earns it, earns it.
G       Bm               E
 Hike a mile as it keeps crawlin', crawlin'.

Chorus 2:

Eb                  Bbmaj7
 So the answer gets harder, harder,
Eb                       Bbmaj7
 And the truth's getting farther and farther.
Eb                    Bbmaj7
 And the bottle keeps churnin' and churnin',
Eb                  Bbmaj7  Bm7
 Seven caged tigers fly by.

Solo:

                 G          Bm     E
e|------------|----------|-----------------|
B|-----5--7/--|--8--7-5--|--7\5--5-7\5-----|
G|--4---------|----------|--------------4--|
D|------------|----------|-----------------|
A|------------|----------|-----------------|
E|------------|----------|-----------------|

    A                F#7          Bm
e|-----------------|-----------|----------|
B|-----------------|-----2--2--|--3\2-----|
G|--0-2-4\2--0-2/--|--3--------|-------4--|
D|-----------------|-----------|----------|
A|-----------------|-----------|----------|
E|-----------------|-----------|----------|

    Cmaj7
e|-------------|---------|------------|-----------|
B|--5/10--5-5--|--5--5/--|--10--5--5--|--\4/5/10--|
G|-------------|---------|------------|-----------|
D|-------------|---------|------------|-----------|
A|-------------|---------|------------|-----------|
E|-------------|---------|------------|-----------|

    G                  Bm                E
e|------10-----10--|------10-----/12p10------|
B|--/12----/12-----|--/12----/12--------/12--|
G|-----------------|-------------------------|
D|-----------------|-------------------------|
A|-----------------|-------------------------|
E|-----------------|-------------------------|

    A        F#7     Bm         Cmaj7
e|--7--6--5-------|------9--10------|--------|--------|
B|--7--6--5-------|--12---------12--|--------|--------|
G|-----------5/7--|-----------------|--------|--------|
D|-----------4/6--|-----------------|--------|--------|
A|----------------|-----------------|--------|--------|
E|----------------|-----------------|--------|--------|

    Bbmaj7                D
e|-------------|-------|--2---|---------------|--------------------|
B|-------------|-------|--3---|--2------------|-----------------3--|
G|--4h5---5\3--|---\2--|--2---|---------------|-----------------2--|
D|-------------|-------|--0---|----4-2-0-2-0--|--2--0----0-2/4-----|
A|-------------|-------|------|---------------|-------2------------|
E|-------------|-------|------|---------------|--------------------|

Chorus 3:

Eb                  Bbmaj7
 So the answer gets harder, harder,
Eb                       Bbmaj7
 And the truth's getting farther and farther.
Eb                    Bbmaj7
 And the bottle keeps churnin' and churnin',
Eb                  Bbmaj7  Bm7
 Seven caged tigers fly by.


CHORD DIAGRAMS:
---------------

   G5      Bm      E       D5      C       B7      Em

 EADGBE  EADGBE  EADGBE  EADGBE  EADGBE  EADGBE  EADGBE
 355xxx  x24432  022100  x577xx  x35553  x21202  022000

  Cmaj7    D       Eb    Bbmaj7    Bm7     A       F#7

 EADGBE  EADGBE  EADGBE  EADGBE  EADGBE  EADGBE  EADGBE
 x32000  xx0232  x68886  xx8765  7x777x  x02220  242322


Tabbed by Joel from cLuMsY, Bristol, England, 2005 (clumsyband@hotmail.com)


...........................................

            
            
Suggest correction
Creating personal tab
Creating personal tab
You can edit any tab online and save it as your Personal.

You can edit, replace or remove any tab part or add personal notes – all changes will be seen only by you.

Personal tabs can be accessed anytime from any device, even offline.
Learn more »
Give kudos to tab author, rate the tab!
1 2 3 4 5
comments
print report bad tab
guest
You may want to rate the tab now too:
select rating
Wanna post a correction for this tab? Suggest correction