Oops, an error
Loading. Please wait.

Im The Mountain tab

version 3
version 3

Whole song

11,161 views 216 this week
4 commentsread comments
1 2 3 4 5
x 15
add to favorites
×
Save as Personal and add changes to this tab that will be seen only by you. Learn more ›
×
You can save this tab as Personal to edit and correct it or add notes. All changes will be seen only by you. Learn more »
launch autoscroll
font size
0
reset
how to read this tab
guitar tuner
edit
Autoscroll
slow
fast
+/-
esc
set tempo
stop
Tuning Drop C: CGCFAD


[0:00 - Riff 1]

Acoustic Guitar - Main Riff

D|-------10-8-----------------------------------------|
A|------------10---10-8-10-8---------6---8------------|
F|-7---7---------------------9-7-----5---7------------|
C|-0-----------------------------(9)-3---5---------3--|
G|-0---------------------------------3---5-(0)-2h3----|
C|-0---------------------------------3---5------------|
   let ring

D|-------10-8-----------------------------------------------|
A|------------10---10-8-10-8---------6---8------------------|
F|-7---7---------------------9-7-----5---7---10-10---10-10--|
C|-0-----------------------------(9)-3---5---9--9----9--9---|
G|-0---------------------------------3---5---10-10---10-10--|
C|-0---------------------------------3---5------------------|
   let ring

D|-------10-8-----------------------------------------|
A|------------10---10-8-10-8---------6---8------------|
F|-7---7---------------------9-7-----5---7------------|
C|-0-----------------------------(9)-3---5---------3--|
G|-0---------------------------------3---5-(0)-2h3----|
C|-0---------------------------------3---5------------|
   let ring

D|-------10-8--------------------------------------------------|
A|------------10---10-8-10-8---------6--8--10--13----13-13-13--|
F|-7---7---------------------9-7-----5--7--9---12----12-12-12--|
C|-0-----------------------------(9)-3--5--7---10----10-10-10--|
G|-0---------------------------------3--5--7---10----10-10-10--|
C|-0---------------------------------3--5--7---10----10-10-10--|
   let ring


[0:30]

Add. Clean E-Guitar (Reverb, Tremolo, Delay)
D|-------10-8-----------------------------------------|
A|------------10---10-8-10-8---------6---8------------|
F|-7---7---------------------9-7-----5---7------------|
C|-0-----------------------------(9)-3---5---------3--|
G|-0---------------------------------3---5-(0)-2h3----|
C|-0---------------------------------3---5------------|
   let ring

D|-------10-8-----------------------------------------------|
A|------------10---10-8-10-8---------6---8------------------|
F|-7---7---------------------9-7-----5---7---10-10---10-10--|
C|-0-----------------------------(9)-3---5---9--9----9--9---|
G|-0---------------------------------3---5---10-10---10-10--|
C|-0---------------------------------3---5------------------|
   let ring

D|-------10-8-----------------------------------------|
A|------------10---10-8-10-8---------6---8------------|
F|-7---7---------------------9-7-----5---7------------|
C|-0-----------------------------(9)-3---5---------3--|
G|-0---------------------------------3---5-(0)-2h3----|
C|-0---------------------------------3---5------------|
   let ring

D|-------10-8----------------------------------------10-10-10--|
A|------------10---10-8-10-8---------6--8--10--13----13-13-13--|
F|-7---7---------------------9-7-----5--7--9---12----12-12-12--|
C|-0-----------------------------(9)-3--5--7---10----10-10-10--|
G|-0---------------------------------3--5--7---10----10-10-10--|
C|-0---------------------------------3--5--7---10----10-10-10--|
   let ring

Repeat 2x


Variation Extra Guitar (ca. 1:00, w Bass Guitar)
D|-------10-8-----------8-10-8------------------------|
A|------------10---10-8--------10-8--6---8------------|
F|-7---7-----------------------------5---7------------|
C|-0---------------------------------3---5---------3--|
G|-0---------------------------------3---5-(0)-2h3----|
C|-0---------------------------------3---5------------|
   let ring


[1:25 - Riff 1]
Heavy Distorted E-Guitar

Same Riffs as in 0:30

Repeat 2x

End with
D|-------10-8----------------------------------------10-10-10----|
A|------------10---10-8-10-8---------6--8--10--13----13-13-13----|
F|-7---7---------------------9-7-----5--7--9---12----12-12-12----|
C|-0-----------------------------(9)-3--5--7---10----10-10-10--0-|
G|-0---------------------------------3--5--7---10----10-10-10--0-|
C|-0---------------------------------3--5--7---10----10-10-10--0-|
   let ring


[2:50 - Riff 2]
Verse - Clean E-Guitar (Reverb, Tremolo, Delay)

D|-8-7-6---(10)---8-7-6-6------------------|
A|-6-6-6-7--------6-6-6---6---7-7----------|
F|-7-7-7-7--------7-7-7-----7-7---7--------|
C|-------7--------------------7-----7------|
G|-----------------------------------------|
C|-----------------------------------------|
   let ring


[03:20]
I'm The Mountain

D|-8-7-6---10---8-10---------|
A|-6-6-6-7----7------8-10----|
F|-7-7-7-7----------------9--|
C|-------7-------------------|
G|---------------------------|
C|---------------------------|
   let ring

Variations:
Picking through all Chords

Repeat Riff 4 x


[04:18 - Riff 3]
Clean Guitar

D|---0-1--------0-1------------------2-2-----2h3p2h3p2h3p2--|
A|-------1----------0-----10-8-------3---3------------------|
F|-----------------------------10-7--2-----2----------------|
C|-0----------0---------0------------0----------------------|
G|-3----------2---------------------------------------------|
C|----------------------8-----------------------------------|
   let ring

D|---0-1--------0-1----------------------------2-2-----2h3p2h3p2h3p2--|
A|-------1----------0-----10-8------10-8-------3---3------------------|
F|-----------------------------10-7------10-7--2-----2----------------|
C|-0----------0---------0----------------------0----------------------|
G|-3----------2-------------------------------------------------------|
C|----------------------8---------------------------------------------|
   let ring



[04:47 - Riff 4]
Clean Guitar

1/8 Notes
D|-13-12-13-|-13-|-15-17-15-13----17-15-13-|14--|2x
A|-13-13-13-|-13-|-13----------15----------|15--|
F|-----------------------------------------|14--|
C|----------------------------------------------|
G|----------------------------------------------|
C|----------------------------------------------|



[05:15 - Riff 2]

Repeat Riff 3x

Then (Distortion Guitar comes in through Riff):

1/8 Notes

D|-----------------------------------------|
A|-----------------------------------------|
F|-5-|-4-|-3-|-----------------------------|
C|-5-|-5-|-3-|-0---------------------------|
G|-3-|-2-|-1-|-0---------------------------|
C|-------------0---------------------------|


[06:07 - Riff 5]
Heavy Distorted E-Guitar

D|-----------------------------------------|
A|-----------------------------------------|
F|-----------------------------------------|
C|-0-----3---3-5-5b6b5-3-----3-5---5-------|
G|-0---5---5-------------5---3-5-3-5-------|
C|-0-------------------------3-5---5-------|

Repeat 3x

Variation (4th Time):

D|-----------------------------------------|
A|-----------------------------------------|
F|-----------------------------------------|
C|-0-----3---5b6b5-3h5p3-----3-5---5-------|
G|-0---5---5-------------5---3-5-3-5-------|
C|-0-------------------------3-5---5-------|


[06:24 - Riff 5.1]
Heavy Distorted E-Guitar

D|-----------------------------------------|
A|-------6---6-8-8b10b8-6------------------|
F|-----7---7--------------7----------------|
C|-0--------------------------3-5---5-0----|
G|-0--------------------------3-5-3-5-0----|
C|-0--------------------------3-5---5-0----|

Variation on 4th Repeat:

D|-----------------------------------------|
A|-------6---8b10b8-8h10p8-----------------|
F|-----7---7---------------7---------------|
C|-0---------------------------3-5---5-0---|
G|-0---------------------------3-5-3-5-0---|
C|-0---------------------------3-5---5-0---|


[06:40 - Riff 6]
Heavy Distorted E-Guitar

D|-----------------------------------------|
A|-----------------------------------------|
F|-----------------------------------------|
C|-0--7--10--5--3--5b6--5--3--5------------|
G|-0--7--10--5--3--5b6--5--3--5------------|
C|-0--7--10--5--3--5b6--5--3--5------------|

Repeat 4x


[06:55 - Riff 2]
Verse - Clean E-Guitar (Reverb, Tremolo, Delay)

D|-8-7-6---(10)---8-7-6-6------------------|
A|-6-6-6-7--------6-6-6---6---7-7----------|
F|-7-7-7-7--------7-7-7-----7-7---7--------|
C|-------7--------------------7-----7------|
G|-----------------------------------------|
C|-----------------------------------------|
   let ring

I'm The Mountain

D|-8-7-6---10---8-10---------|
A|-6-6-6-7----7------8-10----|
F|-7-7-7-7----------------9--|
C|-------7-------------------|
G|---------------------------|
C|---------------------------|
   let ring

Variations:
Picking through all Chords

Repeat Riff 4x


[07:45 - Riff 4]
Clean Guitar

1/8 Notes

D|-13-12-13-|-13-|-15-17-15-13----17-15-13-|14--|
A|-13-13-13-|-13-|-13----------15----------|15--|
F|-----------------------------------------|14--|
C|----------------------------------------------|
G|----------------------------------------------|
C|----------------------------------------------|

D|-13-12-13-|-13-|-----------------------|
A|-13-13-13-|-13-|-----------------------|
F|-----------------7-|-2-----------------|
C|-----------------7-|-0-----------------|
G|-----------------6-|-0-----------------|
C|---------------------0-----------------|


[08:10 - Riff 5]
Heavy Distorted E-Guitar

D|-----------------------------------------|
A|-----------------------------------------|
F|-----------------------------------------|
C|-0-----3---3-5-5b6b5-3-----3-5---5-------|
G|-0---5---5-------------5---3-5-3-5-------|
C|-0-------------------------3-5---5-------|

Repeat 3x

Variation (4th Time):

D|-----------------------------------------|
A|-----------------------------------------|
F|-----------------------------------------|
C|-0-----3---5b6b5-3h5p3-----3-5---5-------|
G|-0---5---5-------------5---3-5-3-5-------|
C|-0-------------------------3-5---5-------|


[08:28 - Riff 5.1]
Heavy Distorted E-Guitar

D|-----------------------------------------|
A|-------6---6-8-8b10b8-6------------------|
F|-----7---7--------------7----------------|
C|-0--------------------------3-5---5-0----|
G|-0--------------------------3-5-3-5-0----|
C|-0--------------------------3-5---5-0----|

Variation on 4th Repeat:

D|-----------------------------------------|
A|-------6---8b10b8-8h10p8-----------------|
F|-----7---7---------------7---------------|
C|-0---------------------------3-5---5-0---|
G|-0---------------------------3-5-3-5-0---|
C|-0---------------------------3-5---5-0---|


[08:44 - Riff 6]
Heavy Distorted E-Guitar

D|-----------------------------------------|
A|-----------------------------------------|
F|-----------------------------------------|
C|-0--7--10--5--3--5b6--5--3--5------------|
G|-0--7--10--5--3--5b6--5--3--5------------|
C|-0--7--10--5--3--5b6--5--3--5------------|

Repeat 4x


[08:58 - Riff 7]
Heavy Distorted E-Guitar w Filter

D|-----------------------------------------|
A|-----------------------------------------|
F|-----------------------------------------|
C|-----------------------------------------|
G|-3-5---5---3-5---5-----------------------|
C|-----0---0-----0---0---------------------| 8x

D|-----------------------------------------|
A|-----------------------------------------|
F|-----------------------------------------|
C|-5-7---7---5-7---7-----------------------|
G|-3-5---5---3-5---5-----------------------|
C|-----0---0-----0---0---------------------| 4x

D|-----------------------------------------|
A|-----------------------------------------|
F|-----------------------------------------|
C|-9-10--10--8-10--10----------------------|
G|-7-8---8---7-8---8-----------------------|
C|-----0---0-----0---0---------------------| 4x


D|-----------------------------------------|
A|-----------------------------------------|
F|-12-14---12---12-14---14-----------------|
C|-----------------------------------------|
G|-----------------------------------------|
C|-------0----0-------0----0---------------|

D|-----------------------------------------|
A|-------13--------------------------------|
F|-12-14----12---12-14---14----------------|
C|-----------------------------------------|
G|-----------------------------------------|
C|-------------0-------0----0--------------|

D|-----------------------------------------|
A|-------15--------------------------------|
F|-12-14----12---12-14---14----------------|
C|-----------------------------------------|
G|-----------------------------------------|
C|-------------0-------0----0--------------|

D|-------12--------------------------------|
A|-----------------------------------------|
F|-12-14----12---12-14---14----------------|
C|-----------------------------------------|
G|-----------------------------------------|
C|-------------0-------0----0--------------|


[09:42]

D|----------------------------------------------|
A|----------------------------------------------|
F|----------------------------------------------|
C|----------------------------------------------|
G|-3-5---5---7-8---8---10-12---12---15-17---17--|
C|-----0---0-----0---0-------0----0-------0-----| 4x


[Bass Interlude]


[10:17 - Riff 8]
Heavy Distorted E-Guitar

D|-----------------------------------------|
A|-----------------------------------------|
F|-----------------------------------------|
C|-------2-------3---------2---------5-----|
G|-3-5-------3-5-----3-5-------3-5---------|
C|-----0---0-------0-----0---0-----0---0---|

D|-----------------------------------------|
A|-----------------------------------------|
F|--------2-------3------------------------|
C|-------------------------5---------4-----|
G|-3-5-------3-5-----3-5-------3-5---------|
C|-----0---0-------0-----0---0-----0---0---|

Repeat 4x


[10:53 - Riff 9]
Heavy Distorted E-Guitar LEAD

D|----------------------8b10-8-5-------------------|
A|-8b10-8-6---8b10-8-6-------------8---8b10-8-6----|
F|----------------------------------------------7--|
C|-------------------------------------------------|
G|-------------------------------------------------|
C|-------------------------------------------------|
Repeat 2x

D|---------------------------20b22-20-17----------------------|
A|-20b22-20-18---20b22-20-18-------------20---20b22-20-18-----|
F|--------------------------------------------------------19--|
C|------------------------------------------------------------|
G|------------------------------------------------------------|
C|------------------------------------------------------------|

D|----------------------8b10-8-5-------------------|
A|-8b10-8-6---8b10-8-6-------------8---8b10-8-6-3--|
F|----------------------------------------------2--|
C|-------------------------------------------------|
G|-------------------------------------------------|
C|-------------------------------------------------|
                                                let ring


[11:13 - Riff 1]
Heavy Distorted E-Guitar

D|-------10-8-----------------------------------------|
A|------------10---10-8-10-8---------6---8------------|
F|-7---7---------------------9-7-----5---7------------|
C|-0-----------------------------(9)-3---5---------3--|
G|-0---------------------------------3---5-(0)-2h3----|
C|-0---------------------------------3---5------------| 3x
   let ring


D|-------10-8----------------------------------------10-10-10--|
A|------------10---10-8-10-8---------6--8--10--13----13-13-13--|
F|-7---7---------------------9-7-----5--7--9---12----12-12-12--|
C|-0-----------------------------(9)-3--5--7---10----10-10-10--|
G|-0---------------------------------3--5--7---10----10-10-10--|
C|-0---------------------------------3--5--7---10----10-10-10--|
   let ring

Repeat both combined 2x


[12:18 - Riff 1]
Acoustic Guitar

D|-------10-8-----------------------------------------|
A|------------10---10-8-10-8---------6---8------------|
F|-7---7---------------------9-7-----5---7------------|
C|-0-----------------------------(9)-3---5---------3--|
G|-0---------------------------------3---5-(0)-2h3----|
C|-0---------------------------------3---5------------|
   let ring

D|-------10-8-----------------------------------------------|
A|------------10---10-8-10-8---------6---8------------------|
F|-7---7---------------------9-7-----5---7---10-10---10-10--|
C|-0-----------------------------(9)-3---5---9--9----9--9---|
G|-0---------------------------------3---5---10-10---10-10--|
C|-0---------------------------------3---5------------------|
   let ring

D|-------10-8-----------------------------------------|
A|------------10---10-8-10-8---------6---8------------|
F|-7---7---------------------9-7-----5---7------------|
C|-0-----------------------------(9)-3---5---------3--|
G|-0---------------------------------3---5-(0)-2h3----|
C|-0---------------------------------3---5------------|
   let ring

D|-------10-8--------------------------------------------------|
A|------------10---10-8-10-8---------6--8--10--13----13-13-13--|
F|-7---7---------------------9-7-----5--7--9---12----12-12-12--|
C|-0-----------------------------(9)-3--5--7---10----10-10-10--|
G|-0---------------------------------3--5--7---10----10-10-10--|
C|-0---------------------------------3--5--7---10----10-10-10--|
   let ring



************************************

| (n)  Ghost note
| h    Hammer-on
| p    Pull-off
| b    Bend

************************************

            
            
Suggest correction
Creating personal tab
Creating personal tab
You can edit any tab online and save it as your Personal.

You can edit, replace or remove any tab part or add personal notes – all changes will be seen only by you.

Personal tabs can be accessed anytime from any device, even offline.
Learn more »
comments
print report bad tab
4 comments total. Showing first comments.
+1 reply
ZeLiGa 14 Nov 08, 2015 07:53 AM

Well done!

+5 reply
panayiotis12.pm 10 Jun 21, 2016 03:56 PM

D|-------10-8-----------------------------------------
A|------------10---10-8-10-8---------6---8------------
F|-7---7---------------------10-7-----5---7------------
C|-0-----------------------------(10)-3---5---------3-
G|-0---------------------------------3---5-(0)-2h3----
C|-0---------------------------------3---5------------
let ring
10 instead of 9
F|-7---7---------------------10-7-----5---7------------
C|-0-----------------------------(10)-3---5---------3-

0 reply
Gressi 143 Jan 14, 2017 07:31 AM

my thought too. Dur sounds wrong there

guest
You may want to rate the tab now too:
select rating
Wanna post a correction for this tab? Suggest correction