Oops, an error
Loading. Please wait.

Ljudet Innan tab

version 1
version 1

Whole song

Interactive

1,447 views 3 this week
1 commentread comment
1 2 3 4 5
x 3
add to favorites
×
Save as Personal and add changes to this tab that will be seen only by you. Learn more ›
×
You can save this tab as Personal to edit and correct it or add notes. All changes will be seen only by you. Learn more »
launch autoscroll
font size
0
reset
how to read this tab
guitar tuner
edit
Autoscroll
slow
fast
+/-
esc
set tempo
stop
Author
Difficulty
Storm Corrosion - Ljudet Innan
Chords/Tab

This Tab was made by Rjjena

Chord-diagram:
                E A D G B e
                -----------
F#madd9         x 9111310 x
c#5+7           x 4 6 4 2 x
Eb°             x 6 4 2 x 2
F#m             x 9111110 x
F#m/E           12x111110 x
Eb*             11x x x x x
Eb°²            11x111110 x
F#m(low)        2 4 4 2 2 x
F#m7            2 4 4 2 5 x
E6/G#           4 x 6 6 5 x
Amaj7           x 0 7 6 5 4
C#7sus4         x x1111 9 7
F#m²            x 9 71110 x
F#sus2          x 9 6 6 9 x
A/C#            x x x 6 5 5
F#m³            2 4 4 2 x x
E/B             x 2 2 1 0 0
A               x 0 7 6 5 5
E               0 2 2 1 0 0
Asus2           x 0 2 2 0 0
Bm              x 2 4 4 3 2
E²              0 x 6 x 9 x
Bm²             7 x 9 7 x x
B               x 2 4 4 4 x
Dmaj7           x 5 7 6 7 x

[Verse I | 0:00-1:23]

F#madd9     c#5+7 Eb°
See you were crying
F#madd9     c#5+7 Eb°
See you were crying
F#m                   F#m/E Eb* (you can also play Eb°²)
Mine is what you are, mine
F#m                   F#m/E Eb* (you can also play Eb°²)
Mine is what you are, mine
F#m(low)
you are mine
      F#m7          E6/G#
And I see you wait, see you wait
       Amaj7    C#7sus4 (strum this chord slowly)
In the sky


[Synth Part I | 1:24-3:27]
(Synth Solo)
(beginning of the returning F#-tone in the background)

F#m² F#sus2 (8 times)


[Synth Part II | 3:28-4:48]
(Guitar enters)

A/C# F#m³ - (only synth)
A/C# F#m³ - (only synth)
A/C# F#m³ - E/B
A/C# F#m³ - E/B


[Drum Part | 4:49-4:48]
(Drum enters, returning F#-tone is still ringing)

A   F#m(low) - ~~
A   F#m(low) - ~~
A   F#m(low) - ~~


[Guitar Part I | 5:28-6:16]

     (E)        (Asus2) (Bm)   A           Fm(low) -
e:|--------------------------------------7----------|
B:|--(9^)10v9-7-7h9-7h9-7------7---9-9/10--10-9-----|
G:|--------------------------6---6------------------|
D:|-------------------------------------------------|
A:|-------------------------------------------------|
E:|-------------------------------------------------|
    (N.C.)
e:|-------------------------------------------------|
B:|------------9-10-9-------------------------------|
G:|---------11--------11----9-----------------------|
D:|----x-11--------------11---11\9-7-9h10p9-7-9-7---|
A:|--9--------------------------------------------9-|
E:|-------------------------------------------------|

     (E)        (Asus2) (Bm)          A                           Fm(low) -
e:|---------------------------------------------------------------------------|
B:|--(9^)10v9-7-7h9-7h9---------------12---14-14h15-14h15p14-12----------/12~-|
G:|---------------------7~--(6)~--/11----11---------------------11-13-14------|
D:|---------------------------------------------------------------------------|
A:|---------------------------------------------------------------------------|
E:|---------------------------------------------------------------------------|

     --Fm(low) -
e:|--------------------------14----12h14------------|
B:|--10-12-12h13p12-10-12/14----14-------14~~~------|
G:|-------------------------------------------------|
D:|-------------------------------------------------|
A:|-------------------------------------------------|
E:|-------------------------------------------------|


[Verse II | 6:17-7:59]

E² Bm²
I purge you now
          A       F#m(low)~~
Cos I got hope inside me
E²  Bm²
Come back to me now
A       F#m(low)~~
  It's after hours
E²  Bm²
Cos I'm nowhere now
A   F#m(low)~~
       Without you here
E²  Bm²
 Cold wind will come
A   F#m(low)~~
           I purge you


[Guitar Solo II | 8:00-9:49]
Guitar I & II are played at the same time.

--------------------------------------------------------------------

Guitar I
              (F#m)   (E)        (B)           (Dmaj7)
e:|---------------------------------------------------------|
B:|---------------------------------------------------------|
G:|---------4-6---------------------------------------------|
D:|--4-6-7------6-4-----------4-----------------------------|
A:|-----------------------------7-6-----6-6h7p6-4---4-------|
E:|-----------------------------------------------7---------|

 (Dmaj7) (E)                         (B)        (Dmaj7)
e:|---------------------------------------------------------|
B:|---------------------------------------------------------|
G:|--4------------------------------------------------------|
D:|----7-6--4-2/4-------------------------------------------|
A:|---------------4/7-----7p6---6-7-9-6----6h7p6p4---4------|
E:|-------------------7/9-----9--------------------7----2~~-|

--------------------------------------------------------------------

Guitar II (Solo)
           (F#m)   (E)          (B)           (Dmaj7)
e:|---------7-9---------------------------------------------|
B:|--7-9-10-----9-7-----------7-----------------------------|
G:|-----------------------------9-8-----8-8h9p8-6---6-------|
D:|-----------------------------------------------9---------|
A:|---------------------------------------------------------|
E:|---------------------------------------------------------|

(Dmaj7)  (E)                                 (B)         (Dmaj7)
e:|-19-17-16--------------------------------------------------------|
B:|---------19-17h19-14h17-----17p16--16-17-19-16~------------------|
G:|-----------------------16h18-----18------------18h20p18p16-18----|
D:|--------------------------------------------------------------16-|
A:|-----------------------------------------------------------------|
E:|-----------------------------------------------------------------|

--------------------------------------------------------------------

!! Repeat the Solo with Guitar I+II

!! Then repeat the solo only with Guitar II

[Fade out with the returning F#-tone in the background | 9:49-10:20]

Enjoy!

            
            
Suggest correction
Creating personal tab
Creating personal tab
You can edit any tab online and save it as your Personal.

You can edit, replace or remove any tab part or add personal notes – all changes will be seen only by you.

Personal tabs can be accessed anytime from any device, even offline.
Learn more »
Give kudos to tab author, rate the tab!
1 2 3 4 5
comments
print report bad tab
1 comment total.
+1 reply
TheKraken 40 Oct 24, 2015 12:47 PM

Great work on those chords, sounds fantastic on an acoustic!

guest
You may want to rate the tab now too:
select rating
Wanna post a correction for this tab? Suggest correction