Oops, an error
Loading. Please wait.

Until The Day I Die tab

version 7
35,863 views 45 this week
2 commentsread comments
1 2 3 4 5
x 7
add to favorites
×
Save as Personal and add changes to this tab that will be seen only by you. Learn more ›
×
You can save this tab as Personal to edit and correct it or add notes. All changes will be seen only by you. Learn more »
launch autoscroll
font size
0
reset
how to read this tab
guitar tuner
backing track
0:00
0:00
edit
Autoscroll
slow
fast
+/-
esc
set tempo
stop
                  Until the Day I Die (acoustic) by Story of the year

tabbed by: factor13x
email: iwildcatbaseball@aol.com

Hey everyone I noticed that nobody has ever put up a complete acoustic
version of this tab so I figured I'd give it a go. Let me know how it is. I took parts 
are right from different tabs and I watched the fingering from their live aol sessions 
on youtube.

Tuning: Drop D

Intro:

Guitar 1
e|------------------------------------------------------|
B|------------------------------------------------------|
G|--------------14-------------------------14-----------|    X 10
D|-----12----12----12----12-------12----12----12----12--|
A|--14----14----------14-------------14----------14-----|
D|------------------------------------------------------|
pm.............    .......................     ........

Guitar 2 (just figure the strumming pattern its really simple)
e|-----------------|
B|-----------------|
G|--7-----9----11--|
D|--5-----7-----9--|    X4
A|--5-----7-----9--|
D|--5-----7-----9--|

Guitar 1  X 2
e|------------------------------------------------------------------------------------------|
B|---15--15-15-15--15-15-15---14-14-14--14-14-14--------------------------------------------|
G|---14--14-14-14--14-14-14---14-14-14--14-14-14---14-14-14--14-14-14--14-14-14--14-14-14---|
D|---12--12-12-12--12-12-12---12-12-12--12-12-12---12-12-12--12-12-12--12-12-12--12-12-12---|
A|-------------------------------------------------12-12-12--12-12-12--12-12-12--12-12-12---|
D|------------------------------------------------------------------------------------------|

Guitar 2
e|-----------------------------------------------------------------|
B|-----------------------------------------------------------------|
G|-----------------------------------------------------------------|
D|--12-121212-121212--111111-111111---7-7-7--7-7-7--7-7-7--7-7-7---|
A|---9--9-9-9--9-9-9---9-9-9--9-9-9---5-5-5--5-5-5--5-5-5--5-5-5---|
D|---9--9-9-9--9-9-9---9-9-9--9-9-9---5-5-5--5-5-5--5-5-5--5-5-5---|

Verse:

Guitar 1 X 3
e|-----------------------------------------------------------------------------------------------|
B|-----------------------------------------------------------------------------------------------|
G|--------------14--------------------14-----------------------14--------------------16----------|
D|-----12----12----12----12--12----12----12----12-----12----12----12----12--14-11-14----14-11-14-|
A|--14----14----------14--------14----------14-----14----14----------14--------------------------|
D|-----------------------------------------------------------------------------------------------|
pm.............    ..................     ....................    ..................    .........
part 2 X 1
e|------------------------------------------------------------------------------------------------|
B|------------------------------------------------------------------------------------------------|
G|--------------14--------------------14-----------------------14-14-14-14------------14-14-14-14-|
D|-----12----12----12----12--12----12----12----12-----12----12---------------12----12-------------|
A|--14----14----------14--------14----------14-----14----14---------------14----14----------------|
D|------------------------------------------------------------------------------------------------|

Guitar 2 (come in after guitar one plays verse riff x4 then stop and come in again after 
1 plays riff x1 and play x2 leaving the last two chords unmuted)
e|-----------------------------------------|
B|-----------------------------------------|
G|---------------------77777777------------|
D|-99999999--55555555--77777777--77777777--|
A|-99999999--55555555--55555555--77777777--|
D|-99999999--55555555------------77777777--|
pm.......................................

Chorus:

Guitar 1
e|------------------------------|
B|----------------151515141414--|
G|----------------141414141414--|
D|--5-5-5--7-7-7--121212121212--|  X 2
A|--5-5-5--7-7-7----------------|
D|--5-5-5--7-7-7----------------|

e|-----------------------------------------------------------------------|
B|---------------------------------------15-15h17p15-15h17p15-15h17p15---|
G|---14-14-14-14---14-14-14-14-------------------------------------------|
D|-----------------------------12----12----------------------------------|
A|--------------------------------14-------------------------------------|
D|-----------------------------------------------------------------------|

e|----------------------------------------------------------------------------------------------|
B|----------------------------------------------------------------------------------------------|
G|-14-14-14-14-----------14-14-14-14-----------14-14-14-14--------------14-14-14-14-14-14-14-14-|
D|-------------12-11-----------------12-11-----------------12-11--------------------------------|
A|-------------------12--------------------12--------------------12-----------------------------|
D|----------------------------------------------------------------------------------------------|

Guitar 2
e|------------------------------|          |----------------|
B|------------------------------|          |----------------|
G|------------------------------|          |----------------|
D|--5-5-5--7-7-7--121212111111--|  X 4     |--5-5-5--7-7-7--|
A|--5-5-5--7-7-7---9-9-9-9-9-9--|          |--5-5-5--7-7-7--|
D|--5-5-5--7-7-7---9-9-9-9-9-9--|          |--5-5-5--7-7-7--|

Verse:

Guitar 1 X 3
e|-----------------------------------------------------------------------------------------------|
B|-----------------------------------------------------------------------------------------------|
G|--------------14--------------------14-----------------------14--------------------16----------|
D|-----12----12----12----12--12----12----12----12-----12----12----12----12--14-11-14----14-11-14-|
A|--14----14----------14--------14----------14-----14----14----------14--------------------------|
D|-----------------------------------------------------------------------------------------------|
pm.............    ..................     ....................    ..................    .........
part 2 X 1
e|------------------------------------------------------------------------------------------------|
B|------------------------------------------------------------------------------------------------|
G|--------------14--------------------14-----------------------14-14-14-14------------14-14-14-14-|
D|-----12----12----12----12--12----12----12----12-----12----12---------------12----12-------------|
A|--14----14----------14--------14----------14-----14----14---------------14----14----------------|
D|------------------------------------------------------------------------------------------------|

Guitar 2 (come in after guitar one plays verse riff x4 then stop and come in again after 
1 plays riff x1 and play x2 leaving the last two chords unmuted)
e|-----------------------------------------|
B|-----------------------------------------|
G|---------------------77777777------------|
D|-99999999--55555555--77777777--77777777--|
A|-99999999--55555555--55555555--77777777--|
D|-99999999--55555555------------77777777--|
pm.......................................

Chorus:

Guitar 1
e|------------------------------|
B|----------------151515141414--|
G|----------------141414141414--|
D|--5-5-5--7-7-7--121212121212--|  X 2
A|--5-5-5--7-7-7----------------|
D|--5-5-5--7-7-7----------------|

e|-----------------------------------------------------------------------|
B|---------------------------------------15-15h17p15-15h17p15-15h17p15---|
G|---14-14-14-14---14-14-14-14-------------------------------------------|
D|-----------------------------12----12----------------------------------|
A|--------------------------------14-------------------------------------|
D|-----------------------------------------------------------------------|

e|----------------------------------------------------------------------------------------------|
B|----------------------------------------------------------------------------------------------|
G|-14-14-14-14-----------14-14-14-14-----------14-14-14-14--------------14-14-14-14-14-14-14-14-|
D|-------------12-11-----------------12-11-----------------12-11--------------------------------|
A|-------------------12--------------------12--------------------12-----------------------------|
D|----------------------------------------------------------------------------------------------|

Guitar 2
e|------------------------------|          |----------------|
B|------------------------------|          |----------------|
G|------------------------------|          |----------------|
D|--5-5-5--7-7-7--121212111111--|  X 4     |--5-5-5--7-7-7--|
A|--5-5-5--7-7-7---9-9-9-9-9-9--|          |--5-5-5--7-7-7--|
D|--5-5-5--7-7-7---9-9-9-9-9-9--|          |--5-5-5--7-7-7--|

Bridge:

Guitar 1 & 2
e|----------------------------------|
B|----------------------------------|
G|----------------------------------|
D|--99-77-55-5-5-5--99-77-55-5-5-5--|  X 2
A|--99-77-55-5-5-5--99-77-55-5-5-5--|
D|--99-77-55-5-5-5--99-77-55-5-5-5--|

Verse 3

Guitar 1 X 3
e|-----------------------------------------------------------------------------------------------|
B|-----------------------------------------------------------------------------------------------|
G|--------------14--------------------14-----------------------14--------------------16----------|
D|-----12----12----12----12--12----12----12----12-----12----12----12----12--14-11-14----14-11-14-|
A|--14----14----------14--------14----------14-----14----14----------14--------------------------|
D|-----------------------------------------------------------------------------------------------|
pm.............    ..................     ....................    ..................    .........
part 2 X 1
e|------------------------------------------------------------------------------------------------|
B|------------------------------------------------------------------------------------------------|
G|--------------14--------------------14-----------------------14-14-14-14------------14-14-14-14-|
D|-----12----12----12----12--12----12----12----12-----12----12---------------12----12-------------|
A|--14----14----------14--------14----------14-----14----14---------------14----14----------------|
D|------------------------------------------------------------------------------------------------|

Guitar 2
e|------------------------------------------------------------------------------------------------|
B|------------------------------------------------------------------------------------------------|
G|------------------------------------------------------------------------------------------------|
D|------------12-------12-----------12-------12--------------12------12-------------11h12p11----11|
A|14-14-14-14----14-14-----12-12-12----12-12-----10-10-10-10----10-10-----12-12-12----------12----|
D|------------------------------------------------------------------------------------------------|

e|-------------------------------------------------------------------------------|
B|-------------------------------------------------------------------------------|
G|-------------------------------------------------------------------------------|
D|---------------12-------12-----------12-------12--------------12---------------|
A|---14-14-14-14----14-14-----12-12-12----12-12-----10-10-10-10----10-10-10-12---|
D|-------------------------------------------------------------------------------|

Chorus: (starts out with strumming each chord once and letting it ring) X 2

Guitar 1
e|------------------------------|
B|----------------151515141414--|
G|----------------141414141414--|
D|--5-5-5--7-7-7--121212121212--|  X 2
A|--5-5-5--7-7-7----------------|
D|--5-5-5--7-7-7----------------|

e|-----------------------------------------------------------------------|
B|---------------------------------------15-15h17p15-15h17p15-15h17p15---|
G|---14-14-14-14---14-14-14-14-------------------------------------------|
D|-----------------------------12----12----------------------------------|
A|--------------------------------14-------------------------------------|
D|-----------------------------------------------------------------------|

e|----------------------------------------------------------------------------------------------|
B|----------------------------------------------------------------------------------------------|
G|-14-14-14-14-----------14-14-14-14-----------14-14-14-14--------------14-14-14-14-14-14-14-14-|
D|-------------12-11-----------------12-11-----------------12-11--------------------------------|
A|-------------------12--------------------12--------------------12-----------------------------|
D|----------------------------------------------------------------------------------------------|

Guitar 2
e|------------------------------|          |----------------|
B|------------------------------|          |----------------|
G|------------------------------|          |----------------|
D|--5-5-5--7-7-7--121212111111--|  X 4     |--5-5-5--7-7-7--|
A|--5-5-5--7-7-7---9-9-9-9-9-9--|          |--5-5-5--7-7-7--|
D|--5-5-5--7-7-7---9-9-9-9-9-9--|          |--5-5-5--7-7-7--|

Outro:

Guitar 1  X 2
e|------------------------------------------------------------------------------------------|
B|---15--15-15-15--15-15-15---14-14-14--14-14-14--------------------------------------------|
G|---14--14-14-14--14-14-14---14-14-14--14-14-14---14-14-14--14-14-14--14-14-14--14-14-14---|
D|---12--12-12-12--12-12-12---12-12-12--12-12-12---12-12-12--12-12-12--12-12-12--12-12-12---|
A|-------------------------------------------------12-12-12--12-12-12--12-12-12--12-12-12---|
D|------------------------------------------------------------------------------------------|

Guitar 2
e|-----------------------------------------------------------------|
B|-----------------------------------------------------------------|
G|-----------------------------------------------------------------|
D|--12-121212-121212--111111-111111---7-7-7--7-7-7--7-7-7--7-7-7---|
A|---9--9-9-9--9-9-9---9-9-9--9-9-9---5-5-5--5-5-5--5-5-5--5-5-5---|
D|---9--9-9-9--9-9-9---9-9-9--9-9-9---5-5-5--5-5-5--5-5-5--5-5-5---|

End with

Guitar 1 & 2
e|------------------|
B|------------------|
G|------------------|
D|--99-77-55-5-5-5--|
A|--99-77-55-5-5-5--|
D|--99-77-55-5-5-5--|

            
            
Suggest correction
Creating personal tab
Creating personal tab
You can edit any tab online and save it as your Personal.

You can edit, replace or remove any tab part or add personal notes – all changes will be seen only by you.

Personal tabs can be accessed anytime from any device, even offline.
Learn more »
comments
print report bad tab
2 comments total.
0 reply
Jreed08013 10 Dec 27, 2010 04:53 PM

I think the song is actually in drop C#, if you play along with the AOL session it sounds better.

Also in the AOL session they play the intro and the rest of the parts like this:

e|------------------------------------------------------|
B|------------10--------------10------------------------|
G|------9---9----9---9-9----9----9----------------------| D|----7---7--------7-----7---------7--------------------|
A|------------------------------------------------------|
E|------------------------------------------------------|

0 reply
personkiller 10 Sep 19, 2013 04:32 AM

I think the intro should be:
Intro:

Guitar 1
e|------------------------------------------------------|
B|------------------------------------------------------|
G|--------------12-------------------------12-----------| X 10
D|-----10----10----10----10-------10----10----10----10--|
A|--12----12----------12-------------12----------12-----|
D|------------------------------------------------------|

Just a thought.... :))

guest
You may want to rate the tab now too:
select rating
Wanna post a correction for this tab? Suggest correction