Oops, an error
Loading. Please wait.

Wake Up tab

version 2
version 2

Whole song

Interactive

5,373 views 1 this week
1 commentread comment
1 2 3 4 5
2 more votes to show rating
add to favorites
×
Save as Personal and add changes to this tab that will be seen only by you. Learn more ›
×
You can save this tab as Personal to edit and correct it or add notes. All changes will be seen only by you. Learn more »
launch autoscroll
font size
0
reset
how to read this tab
guitar tuner
edit
Autoscroll
slow
fast
+/-
esc
set tempo
stop
Note****this plain text tab was generated using powertab***


WAKE UP
As recorded by Story of the Year


Transcribed by Sam Suplee


Gtr I (C# G# C# F# A# D#) - 'Untitled'
Gtr II (C# G# C# F# A# D#) - 'Untitled'
Gtr III (C# G# C# F# A# D#) - 'Untitled'


 Intro
  Q=165
 4/4
  Gtr I
  Q  E E E E E E   +E  E Q  E E Q
|--------0-------|----------0------|
|------6---6-----|------------6----|
|----7-------7-5-|-(5)---7------5--|
|-0--------------|-----0-----------|
|----------------|-----------------|
|----------------|-----------------|
|
| Gtr II
| W                 W
|----------------|-----------------|
|----------------|-----------------|
|----------------|-----------------|
|----------------|-----------------|
|----------------|-----------------|
|----------------|-----------------|


  Q  E E E E E E   +E  E Q  E E Q
|--------0-------|----------0------|
|------6---6-----|------------6----|
|----7-------7-5-|-(5)---7---------|
|-0--------------|-----0-----------|
|----------------|-----------------|
|----------------|-----------------|
|
| W                 W
|----------------|-----------------|
|----------------|-----------------|
|----------------|-----------------|
|----------------|-----------------|
|----------------|-----------------|
|----------------|-----------------|


    Gtr II
    Q  S S S S Q   E E   +E  E Q  E  E  Q   4x
||---------------------|--------------------||
||o--------------------|-------------------o||
||---------------------|--------------------||
||--0----------8---0-0-|-(0)-8-8--8s10-10---||
||o-0--0-0-0-0-8---0-0-|-(0)-8-8--8s10-10--o||
||--0--0-0-0-0-8---0-0-|-(0)-8-8--8s10-10---||
|
|   Gtr I
|   Q  E   E   E E E E   +E  E Q  E  E  Q   4x
||-------------0-------|----------0---------||
||o--------6-----6-----|-------------6-----o||
||-----7-----------7-5-|-(5)---7--------5---||
||--0------------------|-----0--------------||
||o--------------------|-------------------o||
||---------------------|--------------------||


  W                +W                +W                 +W
|----------------|-----------------|------------------|-----------------|
|----------------|-----------------|------------------|-----------------|
|----------------|-----------------|------------------|-----------------|
|-0--------------|-----------------|------------------|-----------------|
|-0--------------|-(0)-------------|-(0)--------------|-(0)-------------|
|-0--------------|-(0)-------------|-(0)--------------|-(0)-------------|
|
| Gtr III
| W                +W                +W                 +W
|----------------|-----------------|------------------|-----------------|
|----------------|-----------------|------------------|-----------------|
|----------------|-----------------|------------------|-----------------|
|-0--------------|-----------------|------------------|-----------------|
|-0--------------|-(0)-------------|-(0)--------------|-(0)-------------|
|-0--------------|-(0)-------------|-(0)--------------|-(0)-------------|
|
| Gtr I
| Q  E E E E E E   +E  E Q  E E Q     Q   E E E E E E   +E  E Q  E E Q
|--------0-------|----------0------|----------0-------|----------0------|
|------6---6-----|------------6----|--------6---6-----|------------6----|
|----7-------7-5-|-(5)---7------5--|------7-------7-5-|-(5)---7------5--|
|-0--------------|-----0-----------|--0---------------|-----0-----------|
|----------------|-----------------|------------------|-----------------|
|----------------|-----------------|------------------|-----------------|


  +W                 +W                +W                 +W
|------------------|-----------------|------------------|-----------------|
|------------------|-----------------|------------------|-----------------|
|------------------|-----------------|------------------|-----------------|
|------------------|-----------------|------------------|-----------------|
|-(0)--------------|-(0)-------------|-(0)--------------|-(0)-------------|
|-(0)--------------|-(0)-------------|-(0)--------------|-(0)-------------|
|
| +W                 +W                +W                 +W
|------------------|-----------------|------------------|-----------------|
|------------------|-----------------|------------------|-----------------|
|------------------|-----------------|------------------|-----------------|
|------------------|-----------------|------------------|-----------------|
|-(0)--------------|-(0)-------------|-(0)--------------|-(0)-------------|
|-(0)--------------|-(0)-------------|-(0)--------------|-(0)-------------|
|
|  Q   E E E E E E   +E  E Q  E E Q     Q   E E E E E E   +E  E Q  E E Q
|----------0-------|----------0------|----------0-------|----------0------|
|--------6---6-----|------------6----|--------6---6-----|------------6----|
|------7-------7-5-|-(5)---7------5--|------7-------7-5-|-(5)---7------5--|
|--0---------------|-----0-----------|--0---------------|-----0-----------|
|------------------|-----------------|------------------|-----------------|
|------------------|-----------------|------------------|-----------------|


   Verse
    PM---------------------------------
    E E E E E E E E   E E E E E E E E
||------------------|-----------------|
||o-----------------|-----------------|
||------------------|-----------------|
||------------------|-----------------|
||o-0-0-0-0-0-0-0-8-|-8-8-8-8-8-8-8-8-|
||--0-0-0-0-0-0-0-8-|-8-8-8-8-8-8-8-8-|
|
|   PM---------------------------------
|   E E E E E E E E   E E E E E E E E
||------------------|-----------------|
||o-----------------|-----------------|
||------------------|-----------------|
||------------------|-----------------|
||o-0-0-0-0-0-0-0-8-|-8-8-8-8-8-8-8-8-|
||--0-0-0-0-0-0-0-8-|-8-8-8-8-8-8-8-8-|


 ------------------------------------------------|
   E  E  E  E  E  E  E  E    E  E  E  E  E  E  E  E
|-------------------------|---------------------------||
|-------------------------|--------------------------o||
|-------------------------|---------------------------||
|-10-10-10-10-10-10-10----|---------------------------||
|--8--8--8--8--8--8--8-10-|-10-10-10-10-10-10-10-10--o||
|----------------------10-|-10-10-10-10-10-10-10-10---||
|
|------------------------------------------------|
|  E  E  E  E  E  E  E  E    E  E  E  E  E  E  E  E
|-------------------------|---------------------------||
|-------------------------|--------------------------o||
|-------------------------|---------------------------||
|-10-10-10-10-10-10-10----|---------------------------||
|--8--8--8--8--8--8--8-10-|-10-10-10-10-10-10-10-10--o||
|----------------------10-|-10-10-10-10-10-10-10-10---||


 Pre-chorus
  E E Q  H      W          E E Q  H      W
|-------------|----------|-------------|------|
|-------------|----------|-------------|------|
|-------------|----------|-------------|------|
|-8-8-8-------|----------|-0-0-0-------|------|
|-8-8-8-------|----------|-0-0-0-------|------|
|-8-8-8-------|----------|-0-0-0-------|------|
|
| E E Q  H      W          E E Q  H      W
|-------------|----------|-------------|------|
|-------------|----------|-------------|------|
|-------------|----------|-------------|------|
|-8-8-8-------|----------|-0-0-0-------|------|
|-8-8-8-------|----------|-0-0-0-------|------|
|-8-8-8-------|----------|-0-0-0-------|------|


  PM------------------------------------------------------------------|
  E E E E E E E E   E E E E E E E E   E E E E E E E E   E E E E E E E E
|-----------------|-----------------|-----------------|-----------------|
|-----------------|-----------------|-----------------|-----------------|
|-----------------|-----------------|-----------------|-----------------|
|-----------------|-----------------|-2-2-2-2-2-2-2-2-|-2-2-2-2-2-2-2-2-|
|-3-3-3-3-3-3-3-3-|-3-3-3-3-3-3-3-3-|-0-0-0-0-0-0-0-0-|-0-0-0-0-0-0-0-0-|
|-3-3-3-3-3-3-3-3-|-3-3-3-3-3-3-3-3-|-----------------|-----------------|
|
| PM------------------------------------------------------------------|
| E E E E E E E E   E E E E E E E E   E E E E E E E E   E E E E E E E E
|-----------------|-----------------|-----------------|-----------------|
|-----------------|-----------------|-----------------|-----------------|
|-----------------|-----------------|-----------------|-----------------|
|-----------------|-----------------|-2-2-2-2-2-2-2-2-|-2-2-2-2-2-2-2-2-|
|-3-3-3-3-3-3-3-3-|-3-3-3-3-3-3-3-3-|-0-0-0-0-0-0-0-0-|-0-0-0-0-0-0-0-0-|
|-3-3-3-3-3-3-3-3-|-3-3-3-3-3-3-3-3-|-----------------|-----------------|


   Chorus
   2/4
    E E E E   E E E  E    E  E  E  E    E  E  E  E  4x
||----------|----------|-------------|--------------||
||o---------|----------|-------------|-------------o||
||----------|-------10-|-10-10-10----|--------------||
||--0-0-0-8-|-8-8-8-10-|-10-10-10-10-|-10-10-10-10--||
||o-0-0-0-8-|-8-8-8--8-|--8--8--8-10-|-10-10-10-10-o||
||--0-0-0-8-|-8-8-8----|----------10-|-10-10-10-10--||
|
|   E E E E   E E E  E    E  E  E  E    E  E  E  E  4x
||----------|----------|-------------|--------------||
||o---------|----------|-------------|-------------o||
||----------|-------10-|-10-10-10----|--------------||
||--0-0-0-8-|-8-8-8-10-|-10-10-10-10-|-10-10-10-10--||
||o-0-0-0-8-|-8-8-8--8-|--8--8--8-10-|-10-10-10-10-o||
||--0-0-0-8-|-8-8-8----|----------10-|-10-10-10-10--||


   4/4
    Gtr II
    W                +W
||-----------------|------------------||
||o----------------|-----------------o||
||-----------------|------------------||
||--0--------------|-(0)--------------||
||o-0--------------|-(0)-------------o||
||--0--------------|-(0)--------------||
|
|   Gtr III
|   PM----------------------------|
|   Q  E E E E E E   +E  E Q  E E Q
||---------0-------|----------0-------||
||o------6---6-----|------------6----o||
||-----7-------7-5-|-(5)---7------5---||
||--0--------------|-----0------------||
||o----------------|-----------------o||
||-----------------|------------------||


   Verse
    PM---------------------------------
    E E E E E E E E   E E E E E E E E
||------------------|-----------------|
||o-----------------|-----------------|
||------------------|-----------------|
||------------------|-----------------|
||o-0-0-0-0-0-0-0-8-|-8-8-8-8-8-8-8-8-|
||--0-0-0-0-0-0-0-8-|-8-8-8-8-8-8-8-8-|
|
|   PM---------------------------------
|   E E E E E E E E   E E E E E E E E
||------------------|-----------------|
||o-----------------|-----------------|
||------------------|-----------------|
||------------------|-----------------|
||o-0-0-0-0-0-0-0-8-|-8-8-8-8-8-8-8-8-|
||--0-0-0-0-0-0-0-8-|-8-8-8-8-8-8-8-8-|


 ------------------------------------------------|
   E  E  E  E  E  E  E  E    E  E  E  E  E  E  E  E
|-------------------------|---------------------------||
|-------------------------|--------------------------o||
|-------------------------|---------------------------||
|-10-10-10-10-10-10-10----|---------------------------||
|--8--8--8--8--8--8--8-10-|-10-10-10-10-10-10-10-10--o||
|----------------------10-|-10-10-10-10-10-10-10-10---||
|
|------------------------------------------------|
|  E  E  E  E  E  E  E  E    E  E  E  E  E  E  E  E
|-------------------------|---------------------------||
|-------------------------|--------------------------o||
|-------------------------|---------------------------||
|-10-10-10-10-10-10-10----|---------------------------||
|--8--8--8--8--8--8--8-10-|-10-10-10-10-10-10-10-10--o||
|----------------------10-|-10-10-10-10-10-10-10-10---||


 2/4
  Gtrs II, III
   PM----------------------------------------------------
   E  E  E  E    E  E  E  E    E  E  E  E    E  E  E  E
|-------------|-------------|-------------|-------------|
|-------------|-------------|-------------|-------------|
|-------------|-------------|-------------|-------------|
|-------------|-------------|-------------|-------------|
|--0--0--0--0-|--0--0--0--8-|--8--8--8--8-|--8--8--8--8-|
|--0--0--0--0-|--0--0--0--8-|--8--8--8--8-|--8--8--8--8-|
|
| Gtr III
|  PM----------------------------------------------------
|  E  E  E  E    E  E  E  E    E  E  E  E    E  E  E  E
|-------------|-------------|-------------|-------------|
|-------------|-------------|-------------|-------------|
|-------------|-------------|-------------|-------------|
|-12-12-12-12-|-12-12-12-12-|-12-12-12-12-|-12-12-12-12-|
|-------------|-------------|-------------|-------------|
|-------------|-------------|-------------|-------------|


 ----------------------------------------------------|
   E  E  E  E    E  E  E  E    E  E  E  E    E  E  E  E
|-------------|-------------|-------------|--------------|
|-------------|-------------|-------------|--------------|
|-------------|-------------|-------------|--------------|
|-10-10-10-10-|-10-10-10----|-------------|--------------|
|--8--8--8--8-|--8--8--8-10-|-10-10-10-10-|-10-10-10-10--|
|-------------|----------10-|-10-10-10-10-|-10-10-10-10--|
|
|----------------------------------------------------|
|  E  E  E  E    E  E  E  E    E  E  E  E    E  E  E  E
|-------------|-------------|-------------|--------------|
|-------------|-------------|-------------|--------------|
|-------------|-------------|-------------|--------------|
|-12-12-12-12-|-12-12-12-12-|-12-12-12-12-|-12-12-12-12--|
|-------------|-------------|-------------|--------------|
|-------------|-------------|-------------|--------------|


  Gtrs II, III
   PM----------------------------------------------------
   E  E  E  E    E  E  E  E    E  E  E  E    E  E  E  E
|-------------|-------------|-------------|-------------|
|-------------|-------------|-------------|-------------|
|-------------|-------------|-------------|-------------|
|-------------|-------------|-------------|-------------|
|--0--0--0--0-|--0--0--0--8-|--8--8--8--8-|--8--8--8--8-|
|--0--0--0--0-|--0--0--0--8-|--8--8--8--8-|--8--8--8--8-|
|
|  PM----------------------------------------------------
|  E  E  E  E    E  E  E  E    E  E  E  E    E  E  E  E
|-------------|-------------|-------------|-------------|
|-------------|-------------|-------------|-------------|
|-------------|-------------|-------------|-------------|
|-12-12-12-12-|-12-12-12-12-|-12-12-12-12-|-12-12-12-12-|
|-------------|-------------|-------------|-------------|
|-------------|-------------|-------------|-------------|


 --------------------------------|
   E  E  E  E    E  E  E  E    E  E  E  E    E  E  E  E
|-------------|-------------|-------------|-------------|
|-------------|-------------|-------------|-------------|
|-------------|-------------|-------------|-------------|
|-------------|-------------|-10-10-10-10-|-10-10-10-10-|
|-10-10-10-10-|-10-10-10-10-|-10-10-10-10-|-10-10-10-10-|
|-10-10-10-10-|-10-10-10-10-|-10-10-10-10-|-10-10-10-10-|
|
|----------------------------------------------------|
|  E  E  E  E    E  E  E  E    E  E  E  E    E  E  E  E
|-------------|-------------|-------------|-------------|
|-------------|-------------|-------------|-------------|
|-------------|-------------|-------------|-------------|
|-12-12-12-12-|-12-12-12-12-|-12-12-12-12-|-12-12-12-12-|
|-------------|-------------|-------------|-------------|
|-------------|-------------|-------------|-------------|


 Pre-chorus
 4/4
  Gtr II
                           PM------------------|
  E E Q  H      W          E E E E E E E E   E E E E E E E E
|-------------|----------|-----------------|------------------|
|-------------|----------|-----------------|------------------|
|-------------|----------|-----------------|------------------|
|-8-8-8-------|----------|-----------------|---------7-7-7-7--|
|-8-8-8-------|----------|-7-7-7-7-7-7-7-7-|-7-7-7-7-7-7-7-7--|
|-8-8-8-------|----------|-7-7-7-7-7-7-7-7-|-7-7-7-7-7-7-7-7--|
|
| Gtr III
|                          PM------------------|
| E E Q  H      W          E E E E E E E E   E E E E E E E E
|-------------|----------|-----------------|------------------|
|-------------|----------|-----------------|------------------|
|-------------|----------|-----------------|------------------|
|-8-8-8-------|----------|-----------------|---------7-7-7-7--|
|-8-8-8-------|----------|-7-7-7-7-7-7-7-7-|-7-7-7-7-7-7-7-7--|
|-8-8-8-------|----------|-7-7-7-7-7-7-7-7-|-7-7-7-7-7-7-7-7--|


   Chorus
    E E E E E E E  E    E  E  E  E  E  E  E  E  8x
||-------------------|--------------------------||
||o------------------|-------------------------o||
||----------------10-|-10-10-10-----------------||
||--0-0-0-8-8-8-8-10-|-10-10-10-10-10-10-10-10--||
||o-0-0-0-8-8-8-8--8-|--8--8--8-10-10-10-10-10-o||
||--0-0-0-8-8-8-8----|----------10-10-10-10-10--||
|
|   E E E E E E E  E    E  E  E  E  E  E  E  E  8x
||-------------------|--------------------------||
||o------------------|-------------------------o||
||----------------10-|-10-10-10-----------------||
||--0-0-0-8-8-8-8-10-|-10-10-10-10-10-10-10-10--||
||o-0-0-0-8-8-8-8--8-|--8--8--8-10-10-10-10-10-o||
||--0-0-0-8-8-8-8----|----------10-10-10-10-10--||


 Bridge
                                                  ~~
  E E Q  H      W          E E Q  H      H     E  Q   +E
|-------------|----------|-------------|------------------|
|-------------|----------|-------------|------------------|
|-------------|----------|-------------|------------------|
|-7-7-7-------|----------|-8-8-8-------|------------------|
|-7-7-7-------|----------|-8-8-8-------|------10s15--(15)-|
|-7-7-7-------|----------|-8-8-8-------|------------------|
|
|                                                 ~~
| E E Q  H      W          E E Q  H      H     E  Q   +E
|-------------|----------|-------------|------------------|
|-------------|----------|-------------|------------------|
|-------------|----------|-------------|------------------|
|-7-7-7-------|----------|-8-8-8-------|------------------|
|-7-7-7-------|----------|-8-8-8-------|------10s15--(15)-|
|-7-7-7-------|----------|-8-8-8-------|------------------|


   E  E  E  E  E  E  E  E    E  E  E  E  E  E  E  E
|-------------------------|-------------------------|
|-------------------------|-------------------------|
|-------------------------|-------------------------|
|-10-10-10-10-10-10-10-10-|-10-10-10-10-10-10-10-10-|
|-10-10-10-10-10-10-10-10-|-10-10-10-10-10-10-10-10-|
|-10-10-10-10-10-10-10-10-|-10-10-10-10-10-10-10-10-|
|
|  E  E  E  E  E  E  E  E    E  E  E  E  E  E  E  E
|-------------------------|-------------------------|
|-------------------------|-------------------------|
|-------------------------|-------------------------|
|-10-10-10-10-10-10-10-10-|-10-10-10-10-10-10-10-10-|
|-10-10-10-10-10-10-10-10-|-10-10-10-10-10-10-10-10-|
|-10-10-10-10-10-10-10-10-|-10-10-10-10-10-10-10-10-|


   PM--------------------------|
   E  E  E  E  E  E  E  E    E  E  E  E  E  E  E  E
|-------------------------|-------------------------|
|-------------------------|-------------------------|
|-------------------------|-------------------------|
|-------------------------|-------------10-10-10-10-|
|-10-10-10-10-10-10-10-10-|-10-10-10-10-10-10-10-10-|
|-10-10-10-10-10-10-10-10-|-10-10-10-10-10-10-10-10-|
|
|  PM--------------------------|
|  E  E  E  E  E  E  E  E    E  E  E  E  E  E  E  E
|-------------------------|-------------------------|
|-------------------------|-------------------------|
|-------------------------|-------------------------|
|-------------------------|-------------10-10-10-10-|
|-10-10-10-10-10-10-10-10-|-10-10-10-10-10-10-10-10-|
|-10-10-10-10-10-10-10-10-|-10-10-10-10-10-10-10-10-|


 Solo
 2/4
  Gtr II
   E  E  E  E    E  E  E  E    E  E  E  E    E  E  E  E
|-------------|-------------|-------------|-------------|
|-------------|-------------|-------------|-------------|
|-------------|----------10-|-10-10-10----|-------------|
|--0--0--0--8-|--8--8--8-10-|-10-10-10-10-|-10-10-10-10-|
|--0--0--0--8-|--8--8--8--8-|--8--8--8-10-|-10-10-10-10-|
|--0--0--0--8-|--8--8--8----|----------10-|-10-10-10-10-|
|
| Gtr III
|  E  E  E  E    E  E  E  E    E  E  E  E    E  E  E  E
|-13-13-13-12-|-12-12-13-13-|-13----------|-------------|
|-------------|-------------|----10-10-10-|-------------|
|-------------|-------------|-------------|-12-12-12-12-|
|-------------|-------------|-------------|-------------|
|-------------|-------------|-------------|-------------|
|-------------|-------------|-------------|-------------|


   E  E  E  E    E  E  E  E    E  E  E  E    E  E  E  E
|-------------|-------------|-------------|-------------|
|-------------|-------------|-------------|-------------|
|-------------|----------10-|-10-10-10----|-------------|
|--0--0--0--8-|--8--8--8-10-|-10-10-10-10-|-10-10-10-10-|
|--0--0--0--8-|--8--8--8--8-|--8--8--8-10-|-10-10-10-10-|
|--0--0--0--8-|--8--8--8----|----------10-|-10-10-10-10-|
|
|  E  E  E  E    E  E  E  E    E  E  E  E    E  E  E  E
|-13-13-13-12-|-12-12-13-13-|-13-13-13-13-|-13-13-13-13-|
|-------------|-------------|-------------|-------------|
|-------------|-------------|-10-10-10-10-|-10-10-10-10-|
|-------------|-------------|-------------|-------------|
|-------------|-------------|-------------|-------------|
|-------------|-------------|-------------|-------------|


   E  E  E  E    E  E  E  E    E  E  E  E    E  E  E  E
|-------------|-------------|-------------|-------------|
|-------------|-------------|-------------|-------------|
|-------------|----------10-|-10-10-10----|-------------|
|--0--0--0--8-|--8--8--8-10-|-10-10-10-10-|-10-10-10-10-|
|--0--0--0--8-|--8--8--8--8-|--8--8--8-10-|-10-10-10-10-|
|--0--0--0--8-|--8--8--8----|----------10-|-10-10-10-10-|
|
|  E  E  E  E    E  E  E  E    E  E  E  E    E  E  E  E
|-13-13-13-12-|-12-12-------|-------------|-------------|
|-------------|-------10-10-|-10-13-13-13-|-------------|
|-------------|-------------|-------------|-12-12-12-12-|
|-------------|-------------|-------------|-------------|
|-------------|-------------|-------------|-------------|
|-------------|-------------|-------------|-------------|


   E  E  E  E    E  E  E  E    E  E  E  E    E  E  E  E
|-------------|-------------|-------------|-------------|
|-------------|-------------|-------------|-------------|
|-------------|----------10-|-10-10-10----|-------------|
|--0--0--0--8-|--8--8--8-10-|-10-10-10-10-|-10-10-10-10-|
|--0--0--0--8-|--8--8--8--8-|--8--8--8-10-|-10-10-10-10-|
|--0--0--0--8-|--8--8--8----|----------10-|-10-10-10-10-|
|
|  E  E  E  E    E  E  E  E    E  E  E  E    E  E  E  E
|-13-13-13-12-|-12-12-13-13-|-13-15-15-15-|-15-15-15-15-|
|-------------|-------------|-------------|-------------|
|-------------|-------------|-------------|-------------|
|-------------|-------------|-------------|-------------|
|-------------|-------------|-------------|-------------|
|-------------|-------------|-------------|-------------|


  PM----------------------------------|
  E E E E   E E E E   E E E E   E E E E
|---------|---------|---------|---------|
|---------|---------|---------|---------|
|---------|---------|---------|---------|
|---------|---------|---------|---------|
|-7-7-7-7-|-7-7-7-7-|-7-7-7-7-|-7-7-7-7-|
|-7-7-7-7-|-7-7-7-7-|-7-7-7-7-|-7-7-7-7-|
|
| PM----------------------------------|
| E E E E   E E E E   E E E E   E E E E
|---------|---------|---------|---------|
|---------|---------|---------|---------|
|---------|---------|---------|---------|
|---------|---------|---------|---------|
|-7-7-7-7-|-7-7-7-7-|-7-7-7-7-|-7-7-7-7-|
|-7-7-7-7-|-7-7-7-7-|-7-7-7-7-|-7-7-7-7-|


  E E E E   E E E E   E E E E   E E E E
|---------|---------|---------|---------|
|---------|---------|---------|---------|
|---------|---------|---------|---------|
|-8-8-8-8-|-8-8-8-8-|-8-8-8-8-|-8-8-8-8-|
|-8-8-8-8-|-8-8-8-8-|-8-8-8-8-|-8-8-8-8-|
|-8-8-8-8-|-8-8-8-8-|-8-8-8-8-|-8-8-8-8-|
|
| E E E E   E E E E   E E E E   E E E E
|---------|---------|---------|---------|
|---------|---------|---------|---------|
|---------|---------|---------|---------|
|-8-8-8-8-|-8-8-8-8-|-8-8-8-8-|-8-8-8-8-|
|-8-8-8-8-|-8-8-8-8-|-8-8-8-8-|-8-8-8-8-|
|-8-8-8-8-|-8-8-8-8-|-8-8-8-8-|-8-8-8-8-|


   E  E  E  E    E  E  E  E    E  E  E  E    E  E  E  E
|-------------|-------------|-------------|-------------|
|-------------|-------------|-------------|-------------|
|-------------|-------------|-------------|-------------|
|-10-10-10-10-|-10-10-10-10-|-10-10-10-10-|-10-10-10-10-|
|-10-10-10-10-|-10-10-10-10-|-10-10-10-10-|-10-10-10-10-|
|-10-10-10-10-|-10-10-10-10-|-10-10-10-10-|-10-10-10-10-|
|
|  E  E  E  E    E  E  E  E    E  E  E  E    E  E  E  E
|-------------|-------------|-------------|-------------|
|-------------|-------------|-------------|-------------|
|-------------|-------------|-------------|-------------|
|-10-10-10-10-|-10-10-10-10-|-10-10-10-10-|-10-10-10-10-|
|-10-10-10-10-|-10-10-10-10-|-10-10-10-10-|-10-10-10-10-|
|-10-10-10-10-|-10-10-10-10-|-10-10-10-10-|-10-10-10-10-|


   PM------------------------------------------|
   E  E  E  E    E  E  E  E    E  E  E  E    E  E  Q
|-------------|-------------|-------------|--------------|
|-------------|-------------|-------------|--------------|
|-------------|-------------|-------------|--------------|
|-------------|-------------|-------------|-------10\----|
|-10-10-10-10-|-10-10-10-10-|-10-10-10-10-|-10-10-10\----|
|-10-10-10-10-|-10-10-10-10-|-10-10-10-10-|-10-10-10\----|
|
|  PM-------------------------------------------------|
|  E  E  E  E    E  E  E  E    E  E  E  E    E  E  E   E
|-------------|-------------|-------------|--------------|
|-------------|-------------|-------------|--------------|
|-------------|-------------|-------------|--------------|
|-------------|-------------|-------------|--------------|
|-10-10-10-10-|-10-10-10-10-|-10-10-10-10-|-10-10-10--10-|
|-10-10-10-10-|-10-10-10-10-|-10-10-10-10-|-10-10-10--10-|


 Chorus
   E  E E E   E E E  E    E  E  E  E    E  E  E  E
|-----------|----------|-------------|-------------|
|-----------|----------|-------------|-------------|
|-----------|-------10-|-10-10-10----|-------------|
|--0--0-0-8-|-8-8-8-10-|-10-10-10-10-|-10-10-10-10-|
|--0--0-0-8-|-8-8-8--8-|--8--8--8-10-|-10-10-10-10-|
|--0--0-0-8-|-8-8-8----|----------10-|-10-10-10-10-|
|
| Gtr III
|  Q.     E   H           H             H
|-----------|----------|-------------|-------------|
|-----------|----------|-------------|-------------|
|-----------|----------|-------------|-------------|
|-12\-------|----------|-------------|-------------|
|-12\-------|----------|-------------|-------------|
|-12\-------|----------|-------------|-------------|


   E  E E E   E E E  E    E   E  E  E    E  E  E  E
|-----------|----------|--------------|-------------|
|-----------|----------|--------------|-------------|
|-----------|-------10-|-10--10-10----|-------------|
|--0--0-0-8-|-8-8-8-10-|-10--10-10-10-|-10-10-10-10-|
|--0--0-0-8-|-8-8-8--8-|--8---8--8-10-|-10-10-10-10-|
|--0--0-0-8-|-8-8-8----|-----------10-|-10-10-10-10-|
|
|  Q.     E   H           Q.        E    E  E  E  E
|-----------|----------|--------------|-------------|
|-----------|----------|--------------|-------------|
|-----------|----------|--------------|-------------|
|-12\-------|----------|-----------10-|-10-10-10-10-|
|-12\-------|----------|-----------10-|-10-10-10-10-|
|-12\-------|----------|-----------10-|-10-10-10-10-|


    E E E E   E E E  E    E  E  E  E    E  E  E  E  4x
||----------|----------|-------------|--------------||
||o---------|----------|-------------|-------------o||
||----------|-------10-|-10-10-10----|--------------||
||--0-0-0-8-|-8-8-8-10-|-10-10-10-10-|-10-10-10-10--||
||o-0-0-0-8-|-8-8-8--8-|--8--8--8-10-|-10-10-10-10-o||
||--0-0-0-8-|-8-8-8----|----------10-|-10-10-10-10--||
|
|   E E E E   E E E  E    E  E  E  E    E  E  E  E  4x
||----------|----------|-------------|--------------||
||o---------|----------|-------------|-------------o||
||----------|-------10-|-10-10-10----|--------------||
||--0-0-0-8-|-8-8-8-10-|-10-10-10-10-|-10-10-10-10--||
||o-0-0-0-8-|-8-8-8--8-|--8--8--8-10-|-10-10-10-10-o||
||--0-0-0-8-|-8-8-8----|----------10-|-10-10-10-10--||


   4/4
    Q  Q  E E E  E    E  E  E  E  E  E  E  E  3x
||-----------------|--------------------------||
||o----------------|-------------------------o||
||--------------10-|-10-10-10-----------------||
||--0--0--8-8-8-10-|-10-10-10-10-10-10-10-10--||
||o-0--0--8-8-8--8-|--8--8--8-10-10-10-10-10-o||
||--0--0--8-8-8----|----------10-10-10-10-10--||
|
|   Q  Q  E E E  E    E  E  E  E  E  E  E  E  3x
||-----------------|--------------------------||
||o----------------|-------------------------o||
||--------------10-|-10-10-10-----------------||
||--0--0--8-8-8-10-|-10-10-10-10-10-10-10-10--||
||o-0--0--8-8-8--8-|--8--8--8-10-10-10-10-10-o||
||--0--0--8-8-8----|----------10-10-10-10-10--||


   E  E  E  E  E  E  E  E    E  E  E  E  E  E  E  E
|-------------------------|-------------------------|
|-------------------------|-------------------------|
|-------------------------|-------------------------|
|-10-10-10-10-10-10-10-10-|-10-10-10-10-10-10-10-10-|
|-10-10-10-10-10-10-10-10-|-10-10-10-10-10-10-10-10-|
|-10-10-10-10-10-10-10-10-|-10-10-10-10-10-10-10-10-|
|
|  E  E  E  E  E  E  E  E    E  E  E  E  E  E  E  E
|-------------------------|-------------------------|
|-------------------------|-------------------------|
|-------------------------|-------------------------|
|-10-10-10-10-10-10-10-10-|-10-10-10-10-10-10-10-10-|
|-10-10-10-10-10-10-10-10-|-10-10-10-10-10-10-10-10-|
|-10-10-10-10-10-10-10-10-|-10-10-10-10-10-10-10-10-|


   Outro
    Gtr II
    Q  S S S S Q   E E   +E  E Q  E  E  Q   3x
||---------------------|--------------------||
||o--------------------|-------------------o||
||---------------------|--------------------||
||--0----------8---0-0-|-(0)-8-8--8s10-10---||
||o-0--0-0-0-0-8---0-0-|-(0)-8-8--8s10-10--o||
||--0--0-0-0-0-8---0-0-|-(0)-8-8--8s10-10---||
|
|   Gtr III
|   Q  E   E   E E E E   +E  E Q  E  E  Q   3x
||-------------0-------|----------0---------||
||o--------6-----6-----|-------------6-----o||
||-----7-----------7-5-|-(5)---7--------5---||
||--0------------------|-----0--------------||
||o--------------------|-------------------o||
||---------------------|--------------------||


  Gtr II
  Q  S S S S Q   E E   +E  E Q  E  Q.
|--------------------|------------------|
|--------------------|------------------|
|--------------------|------------------|
|-0----------8---0-0-|-(0)-8-8--8-10----|
|-0--0-0-0-0-8---0-0-|-(0)-8-8--8-10----|
|-0--0-0-0-0-8---0-0-|-(0)-8-8--8-10----|
|
| Gtr III
| Q  E   E   E E E E   +E  E Q  E  Q.
|------------0-------|----------0--0----|
|--------6-----6-----|-------------6----|
|----7-----------7-5-|-(5)---7-----5----|
|-0------------------|-----0------------|
|--------------------|------------------|
|--------------------|------------------|


  Gtr II
   +W            +W
|-------------|---------*|
|-------------|---------*|
|-------------|---------*|
|-(10)--------|-(10)----*|
|-(10)--------|-(10)----*|
|-(10)--------|-(10)----*|
|
|  +W            +W
|--(0)--------|--(0)----*|
|--(6)--------|--(6)----*|
|--(5)--------|--(5)----*|
|-------------|---------*|
|-------------|---------*|
|-------------|---------*|




--------------------------------------------------------------------------------


Duration Legend
---------------
W - whole; H - half; Q - quarter; E - 8th; S - 16th; T - 32nd; X - 64th; a - acciaccatura
+ - note tied to previous; . - note dotted; .. - note double dotted
Uncapitalized letters represent notes that are staccato (1/2 duration)
Irregular groupings are notated above the duration line
Duration letters will always appear directly above the note/fret number it represents the
duration for.  Duration letters with no fret number below them represent rests.  Multi-
bar rests are notated in the form Wxn, where n is the number of bars to rest for.  Low
melody durations appear below the staff

Tablature Legend
----------------
 h   - hammer-on
 p   - pull-off
 b   - bend
 pb  - pre-bend
 r   - bend release (if no number after the r, then release immediately)
 /\  - slide into or out of (from/to "nowhere")
 s   - legato slide
 S   - shift slide
 - natural harmonic
[n]  - artificial harmonic
n(n) - tapped harmonic
 ~   - vibrato
 tr  - trill
 T   - tap
 TP  - trem. picking
 PM  - palm muting
\n/  - tremolo bar dip; n = amount to dip
 \n  - tremolo bar down
 n/  - tremolo bar up
/n\  - tremolo bar inverted dip
 =   - hold bend; also acts as connecting device for hammers/pulls
 <> - volume swell (louder/softer)
 x   - on rhythm slash represents muted slash
 o   - on rhythm slash represents single note slash

Misc Legend
-----------
 |  - bar
||  - double bar
||o - repeat start
o|| - repeat end
*|  - double bar (ending)
 :  - bar (freetime)
 $  - Segno
 &  - Coda
Tempo markers -  = BPM(8/16=s8/s16), where s8 = swing 8ths, s16 = swing 16ths



--------------------------------------------------------------------------------

** Generated using Power Tab Editor by Brad Larsen: The Official Power Tab Web Site

            
            
Suggest correction
Creating personal tab
Creating personal tab
You can edit any tab online and save it as your Personal.

You can edit, replace or remove any tab part or add personal notes – all changes will be seen only by you.

Personal tabs can be accessed anytime from any device, even offline.
Learn more »
Give kudos to tab author, rate the tab!
1 2 3 4 5
comments
print report bad tab
1 comment total.
0 reply
uhhuhher 154 Oct 12, 2009 08:51 AM

good tab but i think the chorus is wrong.. :-/

guest
You may want to rate the tab now too:
select rating
Wanna post a correction for this tab? Suggest correction