Oops, an error
Loading. Please wait.

Liverwurst tab

by Stove
55 views 1 this week
no commentswrite comment
1 2 3 4 5
2 more votes to show rating
add to favorites
×
Save as Personal and add changes to this tab that will be seen only by you. Learn more ›
×
You can save this tab as Personal to edit and correct it or add notes. All changes will be seen only by you. Learn more »
launch autoscroll
font size
0
reset
how to read this tab
guitar tuner
edit
Autoscroll
slow
fast
+/-
esc
set tempo
stop
Author
made most of these lyrics up


[intro]

e|-----------------------------------------------------------------------------------|
B|-----------------------------------------------------------------------------------|
G|--2-2-4-4-4-4-4-2-2-2-2-2-2--2-2-4-4-4-4-4-2-2-2-2-2-2--2-2-4-4-4-4-4-2-2-2-2-2-2--|
D|--0-0-0-0-0-0-0-0-0-0-0-0-0--0-0-0-0-0-0-0-0-0-0-0-0-0--0-0-0-0-0-0-0-0-0-0-0-0-0--|
A|--0-0-0-0-0-0-0-0-0-0-0-0-0--0-0-0-0-0-0-0-0-0-0-0-0-0--0-0-0-0-0-0-0-0-0-0-0-0-0--|
E|-----------------------------------------------------------------------------------|

e|-------------------------------|
B|-------------------------------|
G|--2-2-4-4-4-4-4-2-2-2-2-2-2-2--|
D|--0-0-0-0-0-0-0-0-0-4-4-4-4-4--| (Repeat whole thing 2x)
A|--0-0-0-0-0-0-0-0-0-0-0-0-0-0--|
E|-------------------------------|


[verse]

e|-----------------------------------------------------------------------------------|
B|-----------------------------------------------------------------------------------|
G|--2-2-4-4-4-4-4-2-2-2-2-2-2--2-2-4-4-4-4-4-2-2-2-2-2-2--2-2-4-4-4-4-4-2-2-2-2-2-2--|
D|--0-0-0-0-0-0-0-0-0-0-0-0-0--0-0-0-0-0-0-0-0-0-0-0-0-0--0-0-0-0-0-0-0-0-0-0-0-0-0--|
A|--0-0-0-0-0-0-0-0-0-0-0-0-0--0-0-0-0-0-0-0-0-0-0-0-0-0--0-0-0-0-0-0-0-0-0-0-0-0-0--|
E|-----------------------------------------------------------------------------------|

e|-------------------------------|
B|-------------------------------|
G|--2-2-4-4-4-4-4-2-2-2-2-2-2-2--|
D|--0-0-0-0-0-0-0-0-0-4-4-4-4-4--| (whole thing 4x)
A|--0-0-0-0-0-0-0-0-0-0-0-0-0-0--|
E|-------------------------------|

You see straight through my
Delivered on a corner
If you see straight to find
A bigger weight and part of me
And we see eye to eye
A liverwurst to border
Fix me fate to find
Figure out to order


[chorus]

e|---------------------------------------------------------------------------|
B|--2-2-2-2-2-2-2-2-2-2-2-2-2-2-2-2-2-2-2-2-2-2-2-2--------------------------|
G|--2-2-2-2-2-2-2-2-4-4-4-4-4-4-4-4-2-2-2-2-2-2-2-2--------------------------|
D|---------------------------------------------------------------------------| 4x
A|--2-2-2-2------------------------------------------------------------------|
E|----------2-2-2-2-3-3-3-3-3-3-3-3-3-3-3-3-3-3-3-3--------------------------|

It's finally seen your prize
But it's just a cold let it off of you
Come with me inside
Or is this the world left with all the worst


[verse]

e|-----------------------------------------------------------------------------------|
B|-----------------------------------------------------------------------------------|
G|--2-2-4-4-4-4-4-2-2-2-2-2-2--2-2-4-4-4-4-4-2-2-2-2-2-2--2-2-4-4-4-4-4-2-2-2-2-2-2--|
D|--0-0-0-0-0-0-0-0-0-0-0-0-0--0-0-0-0-0-0-0-0-0-0-0-0-0--0-0-0-0-0-0-0-0-0-0-0-0-0--|
A|--0-0-0-0-0-0-0-0-0-0-0-0-0--0-0-0-0-0-0-0-0-0-0-0-0-0--0-0-0-0-0-0-0-0-0-0-0-0-0--|
E|-----------------------------------------------------------------------------------|

e|-------------------------------|
B|-------------------------------|
G|--2-2-4-4-4-4-4-2-2-2-2-2-2-2--|
D|--0-0-0-0-0-0-0-0-0-4-4-4-4-4--| (whole thing 4x)
A|--0-0-0-0-0-0-0-0-0-0-0-0-0-0--|
E|-------------------------------|

Cover up your neck
Listen to the order
But you see fate define
Wither in the western side
Loosen up your neck
Come figure out your posture
Cause you seem prey to try
The litter on the fortune side


[chorus]

e|---------------------------------------------------------------------------|
B|--2-2-2-2-2-2-2-2-2-2-2-2-2-2-2-2-2-2-2-2-2-2-2-2--------------------------|
G|--2-2-2-2-2-2-2-2-4-4-4-4-4-4-4-4-2-2-2-2-2-2-2-2--------------------------|
D|---------------------------------------------------------------------------| 4x
A|--2-2-2-2------------------------------------------------------------------|
E|----------2-2-2-2-3-3-3-3-3-3-3-3-3-3-3-3-3-3-3-3--------------------------|

Come to me in time
For is this the poor who let it off for you
Fall to me and I
Or is this the boy who let if off the floor

e|-------------------------------|
B|-------------------------------|
G|--2-2-4-4-4-4-4-2-2-2-2-2-2-2--|
D|--0-0-0-0-0-0-0-0-0-4-4-4-4-4--|
A|--0-0-0-0-0-0-0-0-0-0-0-0-0-0--|
E|-------------------------------|

            
            
Suggest correction
Creating personal tab
Creating personal tab
You can edit any tab online and save it as your Personal.

You can edit, replace or remove any tab part or add personal notes – all changes will be seen only by you.

Personal tabs can be accessed anytime from any device, even offline.
Learn more »
Give kudos to tab author, rate the tab!
1 2 3 4 5
comments
print report bad tab
guest
You may want to rate the tab now too:
select rating
Wanna post a correction for this tab? Suggest correction