Oops, an error
Loading. Please wait.

Skeksis tab

version 1
version 1

Whole song

Interactive

4,478 views 6 this week
2 commentsread comments
1 2 3 4 5
x 3
add to favorites
×
Save as Personal and add changes to this tab that will be seen only by you. Learn more ›
×
You can save this tab as Personal to edit and correct it or add notes. All changes will be seen only by you. Learn more »
launch autoscroll
font size
0
reset
how to read this tab
guitar tuner
edit
Autoscroll
slow
fast
+/-
esc
set tempo
stop
Author
Difficulty
#----------------------------------PLEASE NOTE---------------------------------#
#This file is the author's own work and represents their interpretation of the #
#song. You may only use this file for private study, scholarship, or research. #
#------------------------------------------------------------------------------#

SKEKSIS
As recorded by Strapping Young Lad
(From the 2005 Album ALIEN)
Note: Listen to record for exact rhythm

Transcribed by Erik Dietrich
Posted by Iron Pete
 Words by Devin Townsend Music by Strapping Young Lad

AII
2 x x x x x x Gopen
0 x x x x x x BbIII
3 x x x x x x


Gtr I (G C G C G C E) - 'Gtr 1'
Gtr II (G C G C G C E) - 'Gtr 2'
Gtr III (G C G C G C E) - 'Lead Left'
Gtr IV (G C G C G C E) - 'Lead Right'


   Intro 1
    Q=114
    C5              N.C.
   4/4
    Gtrs I, II
     PM-------------------------------------------------
     S S S S +S  E S  S   S   S   S   S   S   S   S   3x
E||---------------------------------------------------||
C||---------------------------------------------------||
G||o-------------------------------------------------o||
C||--x-x-x-x-(x)-x-x--x---x---x---x---x---x---x---x---||
G||o-0-0-0-0-(0)-0-0-<7>-<7>-<7>-<7>-<7>-<7>-<7>-<7>-o||
C||--0-0-0-0-(0)-0-0--x---x---x---x---x---x---x---x---||
G||---------------------------------------------------||


  C5                N.C.
  ---------------------------|      PM-----|
   S S S S +S  S S S  S   e   S  S  S   S   S
E|----------------------------------------------|
C|----------------------------------------------|
G|----------------------------------------------|
C|-x-x-x-x-(x)-x-x-x--x---x---x-----x---x---x---|
G|-0-0-0-0-(0)-0-0-0-<7>-<7>-<7>---<7>-<7>-<7>--|
C|-0-0-0-0-(0)-0-0-0--x---x---x-----x---x---x---|
G|----------------------------------------------|


    C5              N.C.
     PM-------------------------------------------------
     S S S S +S  E S  S   S   S   S   S   S   S   S   3x
E||---------------------------------------------------||
C||---------------------------------------------------||
G||o-------------------------------------------------o||
C||--x-x-x-x-(x)-x-x--x---x---x---x---x---x---x---x---||
G||o-0-0-0-0-(0)-0-0-<7>-<7>-<7>-<7>-<7>-<7>-<7>-<7>-o||
C||--0-0-0-0-(0)-0-0--x---x---x---x---x---x---x---x---||
G||---------------------------------------------------||


  C5                N.C.
  ---------------------------|      PM-----|
   S S S S +S  S S S  S   e   S  S  S   S   S
E|---------------------------------------------|
C|---------------------------------------------|
G|---------------------------------------------|
C|-x-x-x-x-(x)-x-x-x--x---x---x-----x---x---x--|
G|-0-0-0-0-(0)-0-0-0-<7>-<7>-<7>---<7>-<7>-<7>-|
C|-0-0-0-0-(0)-0-0-0--x---x---x-----x---x---x--|
G|---------------------------------------------|


    Eb5 DbC5                            Eb5 DbC5
    PM--------------------------------------------------------|   PM------|
                                                         |-3-|     |-3-----|
    S S S S S S S S S S S S S S S S  3x S S S S S S S S S S S S S S S S S S
E||----------------------------------||---------------------------------------|
C||----------------------------------||---------------------------------------|
G||o--------------------------------o||---------------------------------------|
C||----------------------------------||---------------------------------------|
G||o3-3-1-0---0---0-0-0-0-0-0-0-0-0-o||-3-3-1-0---0---0-0-0-0-0---0-0-0-0-----|
C||-3-3-1-0---0---0-0-0-0-0-0-0-0-0--||-3-3-1-0---0---0-0-0-0-0---0-0-0-0-----|
G||-3-3-1-0---0---0-0-0-0-0-0-0-0-0--||-3-3-1-0---0---0-0-0-0-0---0-0-0-0-----|


    Eb5 DbC5      G5                  N.C.
     PM----------|
     S S S S S S E S S S S S S S S  3x S E S +S  E S S S S S S S S S
E||---------------------------------||-------------------------------|
C||----------------7-7-7-7-7-7-7-7--||-------------------------------|
G||o---------------7-7-7-7-7-7-7-7-o||-------------------------------|
C||----------------7-7-7-7-7-7-7-7--||-------------------------------|
G||o-3-3-1-0---0-------------------o||-------------------------------|
C||--3-3-1-0---0--------------------||-------------------------------|
G||--3-3-1-0---0--------------------||-1S2-2-(2)-2-2-2h3-3-3-3h4-4-4-|


   Intro 2
    Q=115
     N.C.
     S S S S +S  E S S S S S S S S S  4x
E||-----------------------------------||-|
C||-----------------------------------||-|
G||o---------------------------------o||-|
C||-----------------------------------||-|
G||o---------------------------------o||-|
C||-----------------------------------||-|
G||--4h5-5-5-(5)-5-5-4h5-5-5-4h5-5-5--||-|

 
     S S S S     +S  E S S S S S S S S S
E||----------------------------------------||
C||----------------------------------------||
G||o--------------------------------------o||
C||----------------------------------------||
G||o--------------------------------------o||
C||----------------------------------------||
G||--6-6-6-6b6.5-(6)-5-5-4h5-5-5-4h5-5-5---||

 
  S S S S     +S  E S S S S S S S S S   S S S S     +S  E S S S S S S S S S
E|-----------------------------------|--------------------------------------|
C|-----------------------------------|--------------------------------------|
G|-----------------------------------|--------------------------------------|
C|-----------------------------------|--------------------------------------|
G|-----------------------------------|--------------------------------------|
C|-----4b4.5-(4)---------------------|-------4b4.5-(4)----------------------|
G|-6-5-5-----------5-5-4h5-5-5-4h5-5-5-|-6-5-5-----------5-5-4h5-5-5-4h5-5-5|


    N.C.
    PM--------|                         PM--------|
     |----6----|                         |----6----|
     S S S S S S S E S S S S S S S S S   S S S S S S S E S S S S S S S S S
E||------------------------------------|-----------------------------------|
C||------------------------------------|-----------------------------------|
G||o-----------------------------------|-----------------------------------|
C||------------------------------------|-----------------------------------|
G||o-----------------------------------|-----------------------------------|
C||------------------------------------|-----------------------------------|
G||--8-8-7-7-6-6-5-5-5-4h5-5-5-4h5-5-5-|-8-8-7-7-6-6-5-5-5-4h5-5-5-4h5-5-5-|


                                         1.
 PM--------|
  |----6----|
  S S S S S S S  E +S   S S S S S S S S   S S S S S S S S S S S S S S S S
E|--------------------------------------|-------------------------------------|
C|--------------------------------------|-------------------------------------|
G|--------------------------------------|---------------------------------o---|
C|--------------------------------------|-------------------------------------|
G|--------------------------------------|---------------------------------o---|
C|--------------/7-(7)-----------------|--------------------------------------|
G|8-8-7-7-6-6-5---------4h5-5-5-4h5-5-5-|-4h5-5-5-4h5-5-5-4h5-5-5-4h5-5-5-----|


  2.
                    C5              C5              C
  PM--------|       PM----------|
   |----6------------------------|
   S S S S S S S E S S e S S E S     S S S S +S  E S S S S S S S S S   3x
E|-------------------------------||------------------0-0-0-0-0-0-0-0---||
C|-------------------------------||------------------0-0-0-0-0-0-0-0---||
G|-------------------------------||o-----------------0-0-0-0-0-0-0-0--o||
C|-------------------x-x-x-x-x-x-||--0-0-0-0-(0)-0-0-0-0-0-0-0-0-0-0---||
G|-------------------0-0-0-0-0-0-||o-0-0-0-0-(0)-0-0-0-0-0-0-0-0-0-0--o||
C|-------------------0-0-0-0-0-0-||--0-0-0-0-(0)-0-0-0-0-0-0-0-0-0-0---||
G|-8-8-7-7-6-6-5-5-5-------------||------------------------------------||


   C5              Gmaj7sus4/C N.C.                  Gmaj7sus4/C N.C.
   S S S S +S  E S S S S S S S E     a E S S +S  E S S S S S S S E
E|-----------------2-2-2-2-2-2---||------------------2-2-2-2-2-2----||
C|-----------------0-0-0-0-0-0---||------------------0-0-0-0-0-0----||
G|-----------------0-0-0-0-0-0---||o-----------------0-0-0-0-0-0---o||
C|-0-0-0-0-(0)-0-0-0-0-0-0-0-0---||------------------0-0-0-0-0-0----||
G|-0-0-0-0-(0)-0-0-0-0-0-0-0-0---||o-----------------0-0-0-0-0-0---o||
C|-0-0-0-0-(0)-0-0-0-0-0-0-0-0---||------------------0-0-0-0-0-0----||
G|-----------------------------1-||--4s5-5-5-(5)-5-5-------------1--||


                   Gmaj7sus4/C N.C.                Gmaj7sus4/C
   a E S S +S  E S S S S S S S  E   E  S S +S  E S S S S S Q
E|-----------------2-2-2-2-2-2----|----------------2-2-2-2-------|
C|-----------------0-0-0-0-0-0----|----------------0-0-0-0-------|
G|-----------------0-0-0-0-0-0----|----------------0-0-0-0-------|
C|-----------------0-0-0-0-0-0----|----------------0-0-0-0-------|
G|-----------------0-0-0-0-0-0----|----------------0-0-0-0-------|
C|-----------------0-0-0-0-0-0-/4-|-4-0-0-(0)-0-0-0-0-0-0-7------|
G|-4s5-5-5-(5)-5-5----------------|------------------------------|


  N.C.
  7/8                     4/4
   S S S S E S S S S E E   S S S S E S S S S E E E
E|-----------------------|-------------------------|
C|-----------------------|-------------------------|
G|-----------------------|-------------------------|
C|-----------------------|-------------------------|
G|-----------------------|-------------------------|
C|---------2---------2-0-|---------2---------2-5-4-|
G|-0-0-3-3---0-0-3-3-----|-0-0-3-3---0-0-3-3-------|


 7/8                     9/8
                       PM
   S S S S E S S S S E E   S S S S E S S T T S E E E   E
E|-----------------------|---------------------------------|
C|-----------------------|---------------------------------|
G|-----------------------|---------------------------------|
C|-----------------------|---------------------------------|
G|-----------------------|---------------------------------|
C|---------2---------2---|---------2-----------2-5-5b6-5b7-|
G|-0-0-3-3---0-0-3-3---0-|-0-0-3-3---0-0-3-3-3-------------|


  (C)
 4/4
   |----6----| |----6----|
   S S S S S S S S S S S S Q  Q    S S S S +S  E S Q  Q
E|-------------------------0--0--|-----------------0--0--|
C|-------------------------0--0--|-----------------0--0--|
G|-------------------------0--0--|-----------------0--0--|
C|-------------------------0--0--|-----------------0--0--|
G|-------------------------------|-----------------------|
C|-0-0-0-0-0-0-0-0-0-0-0-0-------|-0-0-0-0-(0)-0-0-------|
G|-------------------------------|-----------------------|


                        PM
   S S S S +S  E S Q  E E   S S S S +S  E S Q  Q
E|-----------------0--0---|-----------------0--------|
C|-----------------0--0---|-----------------0--------|
G|-----------------0--0---|-----------------0--------|
C|-----------------0--0---|-----------------0--------|
G|------------------------|--------------------------|
C|-0-0-0-0-(0)-0-0--------|-0-0-0-0-(0)-0-0----7-----|
G|----------------------0-|--------------------------|


  Eb5/Bb
                   PM--------|
   S E S +S  E S E S S S S S S
E|-----------------------------|
C|-----------------------------|
G|-3-3-3-(3)-3-3-3-------------|
C|-3-3-3-(3)-3-3-3-------------|
G|-3-3-3-(3)-3-3-3-3-3-3-3-3-3-|
C|-----------------3-3-3-3-3-3-|
G|-----------------3-3-3-3-3-3-|


                   PM--------|                    PM
   S E S +S  E S E S S +S  S E   S E S +S  E S Q  Q
E|-----------------------------|----------------------|
C|-----------------------------|----------------------|
G|-3-3-3-(3)-3-3-3-------------|-3-3-3-(3)-3-3-3------|
C|-3-3-3-(3)-3-3-3-------------|-3-3-3-(3)-3-3-3------|
G|-3-3-3-(3)-3-3-3-3-3-(3)-3-3-|-3-3-3-(3)-3-3-3--3---|
C|-----------------3-3-(3)-3-3-|------------------3---|
G|-----------------3-3-(3)-3-3-|------------------3---|


  Eb5/Bb              F5/C       AII
                                 Gtr II
  W                              E   Q.       E   Q.
                                 |            |
                                 /            /

  Gtrs I, II                     Gtr I
                                  |--3---| |3| |--3---| |-3-|
   S E S +S  E S E S S S S S S    E E    E E Q E E    E E E E
E|-----------------------------||-----------------------------|
C|-----------------------------||-----------------------------|
G|-3-3-3-(3)-3-3-3-3-3-5-5-5-5-||-----------------------------|
C|-3-3-3-(3)-3-3-3-3-3-5-5-5-5-||-----------------------------|
G|-3-3-3-(3)-3-3-3-3-3-5-5-5-5-||--------2-4-6--------2-4-6-4-|
C|-----------------------------||---4------------4------------|
G|-----------------------------||-2------------2--------------|


  E   Q.         E   Q.
  |              |
  /              /

   |--3---| |-3-| |--3---| |-3-|
   E E    E E E E E E    E E E E
E|---------------------------------|
C|---------------------------------|
G|---------------------------------|
C|--------------4------------------|
G|--------2-4-6----------2-4-6-4---|
C|---4--------------4--------------|
G|-2--------------2----------------|


                                          Gopen
  E   Q.     E   Q.           Q     Q     S S   S   S S S   S   S
  |          |                |           | |   |   | | |   |   |
  /          /                /           / /   /   / / /   /   /

   |3|    |3| |--3---| |-3-|   |-3-| |-3-| |---3---|   |---3---|
   E Q    Q E E E    E E E E   E E E E E E E   E   E   E   E   E
E|---------------------------|-------------------------------------|
C|---------------------------|-------------------------------------|
G|---------------------------|-------------------------------------|
C|-6-------------------------|-------------6-------------------4---|
G|----------4-6--------4-6-4-|-----2-4-6-3-----4---2---3---6-------|
C|---1----4----------4-------|---4---------------------------------|
G|--------------6------------|-2-----------------------------------|


  AII         BbAII                          BbAII
          |-3-|
  E   E   Q   E E   E   Q       E   E   E.   S E   E   Q
  |           | |               |            | |
  /           / /               /            / /

   |--3--| |-3-| |--3--| |-3-|   |--3--|        |--3--| |-3-|
   E E   E E E E E E   E E E E   E E   E S  E S E E   E E E E
E|-----------------------------|-------------------------------|
C|-----------------------------|-------------------------------|
G|-----------------------------|-------------------------------|
C|-----------1-------------1-3-|------------1------------------|
G|-------2-4---3-------2-4-----|-------2-4----3-------2-4-6-3--|
C|---4-------------4-----------|---4--------------4------------|
G|-2-------------2-------------|-2--------------2--------------|


                                                     Gopen
  E   Q.           E   Q.           E   Q.           S S   S   S S S   S   S
  |                |                |                | |   |   | | |   |   |
  /                /                /                / /   /   / / /   /   /

                   |--3---| |-3-|                    |---3---|   |---3---|
  S E    S +S  E S E E    E E E E   S S S  S +S  E S E   E   E   E   E   E
E|-------------------------------|------------------------------------------|
C|-------------------------------|------------------------------------------|
G|-------------------------------|------------------------------------------|
C|6-----------------6------------|-----6------------6-----------------------|
G|------------4-6p4----------4-6-|-6-4------------4-----4---2---6---4---2---|
C|------4-(4)--------------4-----|--------------4---------------------------|
G|-2---------------------2-------|--------2-(2)-----------------------------|


    Gopen                                                        BbIII
    S E S +S E S  H                   S E S +S E S  Q.           E
    | | |  | | |  |                   | | |  | | |  |            |
    / / /  / / /  /                   / / /  / / /  /            /
 
     H             S S S S S S S S  3x H             S  S S S S S E
E||---------------------------------||-------------------------------|
C||---------------------------------||-------------------------------|
G||o--------------/6-6-6-6-6-6-6-6-o||--------------/6--6-6-6-6-6----|
C||---------------------------------||-------------------------------|
G||o--------------/6-6-6-6-6-6-6-6-o||--------------/6--6-6-6-6-6----|
C||---------------------------------||-------------------------------|
G||---------------------------------||----------------------------3--|


   Verse 1
    N.C.(A5)
                                   PM                                 PM
     |---9:8---|  |----6----| |-3-|     |---9:8---|  |----6----| |-3-|
     S E S E S E  S S S S S S S S S E   S E S E S E  S S S S S S S S S E
E||-----------------------------------|-----------------------------------||
C||-----------------------------------|-----------------------------------||
G||o-------------/6-6-6-6-6-6-6-6-6---|-------------/6-6-6-6-6-6-6-6-6---o||
C||-----------------------------------|-----------------------------------||
G||o-0h2-0h2-0h2-/6-6-6-6-6-6-6-6-6---|-0h2-0h2-0h2-/6-6-6-6-6-6-6-6-6---o||
C||--x-x-x-x-x-x----------------------|-x-x-x-x-x-x-----------------------||
G||--0h2-0h2-0h2--------------------0-|-0h2-0h2-0h2--------------------0--||


  N.C.(C5)
                                PM                                PM
   |---9:8---| |----6----| |-3-|     |---9:8---| |----6----| |-3-|
   S E S E S E S S S S S S S S S E   S E S E S E S S S S S S S S S E
E|---------------------------------|---------------------------------|
C|---------------------------------|---------------------------------|
G|-------------6-6-6-6-6-6-6-6-6---|-------------6-6-6-6-6-6-6-6-6---|
C|---------------------------------|---------------------------------|
G|-3S5-3S5-3S5-6-6-6-6-6-6-6-6-6---|-3S5-3S5-3S5-6-6-6-6-6-6-6-6-6---|
C|-x-x-x-x-x-x---------------------|-x-x-x-x-x-x---------------------|
G|-3S5-3S5-3S5-------------------0-|-3S5-3S5-3S5-------------------0-|


  N.C.(A5)                                       C5/G
   |---9:8---|  |----6----| |-3-|     |---9:8---|
   S E S E S E  S S S S S S S S S E   S E S E S E H
E|----------------------------------|------------------|
C|----------------------------------|------------------|
G|-------------/6-6-6-6-6-6-6-6-6---|------------------|
C|----------------------------------|------------------|
G|-0h2-0h2-0h2-/6-6-6-6-6-6-6-6-6---|-----0h2-0h2-0----|
C|-x-x-x-x-x-x----------------------|-----x-x-x-x-0----|
G|-0h2-0h2-0h2--------------------3-|-0h2-0h2-0h2-0----|


    N.C.(A5)
                PM----|     PM
     |---9:8---|
     S E S E S E S S S S S S E
E||-----------------------------||
C||-----------------------------||
G||o---------------------------o||
C||-----------------------------||
G||o-0h2-0h2-0h2-6-6-6-6-6-6---o||
C||--x-x-x-x-x-x----------------||
G||--0h2-0h2-0h2-------------0--||


              PM----|                     PM-----------|     PM
   |---9:8---|                 |---9:8------------------|
   S E S E S E S S S S S S E   S E S E S E S S S S S S E
E|---------------------------|----------------------------|
C|---------------------------|----------------------------|
G|---------------------------|----------------------------|
C|---------------------------|----------------------------|
G|-0h2-0h2-0h2-6-6-6-6-6-6---|-0h2-0h2-0h2-6-6-6-6-6-6----|
C|-x-x-x-x-x-x---------------|-x-x-x-x-x-x----------------|
G|-0h2-0h2-0h2-------------3-|-0h2-0h2-0h2-------------0--|


              PM----|     PM              PM-----------|     PM
   |---9:8---|                 |---9:8------------------|
   S E S E S E S S S S S S E   S E S E S E S S S S S S E
E|---------------------------|---------------------------|
C|---------------------------|---------------------------|
G|---------------------------|---------------------------|
C|---------------------------|---------------------------|
G|-3S5-3S5-3S5-6-6-6-6-6-6---|-3S5-3S5-3S5-6-6-6-6-6-6---|
C|-x-x-x-x-x-x---------------|-x-x-x-x-x-x---------------|
G|-3S5-3S5-3S5-------------0-|-3S5-3S5-3S5-------------0-|


              PM----|     PM              PM--------------|
   |---9:8---|                 |---9:8---------------------|
   S E S E S E S S S S S S E   S E S E S E S S S S S S S S
E|---------------------------|-----------------------------|
C|---------------------------|-----------------------------|
G|---------------------------|-----------------------------|
C|---------------------------|-----------------------------|
G|-0h2-0h2-0h2-6-6-6-6-6-6---|-0h2-0h2-0h2-6-6-6-6-6-6-6-6-|
C|-x-x-x-x-x-x---------------|-x-x-x-x-x-x-----------------|
G|-0h2-0h2-0h2-------------0-|-0h2-0h2-0h2-----------------|


 Chorus
  N.C.(G)
   Gtr I
   W               H      H        Q  E E Q  Q     S S S S Q   S S S S Q
E|---------------|---------------|--------------|---------------------------|
C|---------------|---------------|--------------|---------------------------|
G|---------------|---------------|--------------|---------------------------|
C|---------------|--------4------|------4-------|-/6-6-6-6----/7-7-7-7------|
G|-6-------------|-4-------------|-4--6---6--0--|----------0-----------0----|
C|---------------|---------------|--------------|---------------------------|
G|---------------|---------------|--------------|---------------------------|
|
 | Gtr II
 | Q  E E Q  E E   Q  E E Q  E E   Q  E E Q  Q     S S S S Q   S S S S Q
E|---------------|---------------|--------------|---------------------------|
C|---------------|---------------|--------------|---------------------------|
G|---------------|---------------|--------------|---------------------------|
C|---------------|---------------|--------------|-/6-6-6-6----/7-7-7-7------|
G|---------------|---------------|-----------0--|----------0-----------0----|
C|---------------|---------------|--------------|---------------------------|
G|-0--0-0-0--0-0-|-0--0-0-0--0-0-|-0--0-0-0-----|---------------------------|

 
   H.         Q     H      Q  Q
E|----------------|---------------|
C|----------------|---------------|
G|----------------|---------------|
C|----------------|--------6------|
G|-6----------6---|-4---------4---|
C|----------------|---------------|
G|----------------|---------------|
 |
 | Q   E E Q  E E   Q  E E Q  E E
E|----------------|---------------|
C|----------------|---------------|
G|----------------|---------------|
C|----------------|---------------|
G|----------------|---------------|
C|----------------|---------------|
G|-0---0-0-0--0-0-|-0--0-0-0--0-0-|

 
   E E Q   +Q   Q     S S S S Q    S S S S  e E
E|-----------------|------------------------------|
C|-----------------|------------------------------|
G|-----------------|------------------------------|
C|---4-------------|-/6-6-6-6-----/7-7-7-7-/7-7---|
G|-6---6---(6)--0--|----------0-------------------|
C|-----------------|------------------------------|
G|-----------------|------------------------------|
 |
 | Q   E E  Q   Q     S S E   e E  S S S S  e E
E|-----------------|------------------------------|
C|-----------------|------------------------------|
G|-----------------|------------------------------|
C|-----------------|-/6-6-6-------/7-7-7-7--------|
G|--------------0--|----------0-0-----------0-0---|
C|-----------------|------------------------------|
G|-0---0-0--0------|------------------------------|


  N.C.(A5)                    N.C.(G)
   |-3-| |-3-|   |-3-| |-3-|
   Q Q Q Q Q Q   Q Q Q Q Q Q   Q  E  E Q  Q
E|-------------|-------------|---------------|
C|-------------|-------------|---------------|
G|-------------|-------------|-4--6S11-6--0--|
C|-------------|-------------|-x--xS=x-x--x--|
G|-------------|-------------|-4--6S11-6--0--|
C|-------------|-------------|---------------|
G|-2-2-2-2-2-2-|-2-2-2-2-2-2-|---------------|


     |--3--|  |--3--|       |--3--|  |--3--|
     S  S  S  S  S  S E E   S  S  S  S  S  S Q
E|------------------------------------------------|
C|------------------------------------------------|
G|-/11-11-11-11-11-11-0-0-/12-12-12-12-12-12-0----|
C|--/x--x--x--x--x--x-x-x--/x--x--x--x--x--x-x----|
G|-/11-11-11-11-11-11-0-0-/12-12-12-12-12-12-0----|
C|------------------------------------------------|
G|------------------------------------------------|


   N.C.
   S E S E S S +S  S E S E S   E S S +S  S E S E S E.     +S
E|---------------------------|---------------------------------|
C|---------------------------|---------------------------------|
G|---------------------------|---------------------------------|
C|---------------------------|---------------------------------|
G|---------------------------|---------------------------------|
C|---------------------------|---------------------------------|
G|-4-2-4-2-4-2-(2)-4-2-4-2-4-|-1-4-2-(2)-4-1-4-2-4-3b3.5==(3)r-|


  N.C.(G)
                     |--3--|  |--3--|      |--3--|  |--3--|
   Q  E  E Q  Q      S  S  S  S  S  S Q    S  S  S  S  S  S Q
E|---------------|---------------------------------------------|
C|---------------|---------------------------------------------|
G|----6S11-6--0--|-/11-11-11-11-11-11-0--/12-12-12-12-12-12-0--|
C|----xS=x-x--x--|--/x--x--x--x--x--x-x---/x--x--x--x--x--x-x--|
G|----6S11-6--0--|-/11-11-11-11-11-11-0--/12-12-12-12-12-12-0--|
C|---------------|---------------------------------------------|
G|---------------|---------------------------------------------|


 Interlude
   N.C.
   S S S S S S S S S S S S S S S S   S S S S S S S S S S S S S S S S
E|---------------------------------|---------------------------------|
C|---------------------------------|---------------------------------|
G|---------------------------------|---------------------------------|
C|-----------1-------------------1-|---------------------------------|
G|-------0-4---4-------------0-4---|-4-------------0-4-6-4-----------|
C|---1-3---------5-1-----1-3-------|---5---------3---------5---------|
G|-2-----------------2-2-----------|-----6-0-1-2-------------6-0-1-2-|

 
   S S S S S S S S S S S S S S S S   S S S S S S S S S S S S S S S  S
E|---------------------------------|-----------------------------------|
C|---------------------------------|-----------------------------------|
G|---------------------------------|-----------------------------------|
C|---------------------------------|-----------------------------------|
G|---------4-6-4-------------------|-------------4-6-4-----------------|
C|-3-----4-------5---------3-----4-|-----5-----6-------5---------3-(6)-|
G|---2-3-----------6-0-1-2---2-3---|-3-4---4-5-----------6-0-1-2-------|

 
   S S S S S S S S E S S S S S S   S S S S S S S S S S S S S S S S
E|-------------------------------|----------------------------------|
C|-------------------------------|----------------------------------|
G|-------------------------------|----------------------------------|
C|-------------------------------|----------------------------------|
G|-4-6-4-------------4-6-4-------|-------x-4-6-4---------------4-6--|
C|-------5---------3-------5-----|-----3---------5---------3-3------|
G|---------6-0-1-2-----------6-0-|-1-2-------------6-0-1-2----------|


   Bridge
    N.C.
     PM--------------------------------------------------------------------|
     S S S S S S S S S S  S  S S S S S  3x S S S S S S S S S S  S  S S S S S
E||------------------------------------||-----------------------------------|
C||------------------------------------||-----------------------------------|
G||o----------------------------------o||-----------------------------------|
C||------------------------------------||-----------------------------------|
G||o0-0-0-0-0-0-0-0-7-7-10-10-6-6-6-6-o||-0-0-0-0-0-0-0-0-7-7-10-10-6-6-4-4-|
C||------------------------------------||-----------------------------------|
G||------------------------------------||-----------------------------------|


                                          Gopen
    Gtr II
                                                                    |-3-|
    W                                     S S S S S S S S S S  S  S S S S S S
                                          | | | | | | | | | |  |  | | | | |
                                          x x x x x x x x x x  x  x x x x x

    Gtr I
    PM--------------------------------------------------------------------|
                                                                    |-3-|    
 S S S S S S SS S S  S  S S S S S  3x S S S S S S S S S S  S  S S S S S S
E||----------------------------------||-------------------------------------|
C||----------------------------------||-------------------------------------|
G||---------------------------------o||-------------------------------------|
C||----------------------------------||-------------------------------------|
G||o0-0-0-0-0-0-0-0-7-7-10-10-6-6-44o||-0-0-0-0-0-0-0-0-7-7-10-10-6-6-6-6---|
C||----------------------------------||-------------------------------------|
G||----------------------------------||-------------------------------------|


    Double Time H=115
    N.C.
     Gtrs I, II
   S S S S S S S S S S S S S S S S   S S S S  S  S  S  S S S S S S S S S   3x
E||--------------------------------|---------------------------------------||
C||--------------------------------|---------------------------------------||
G||o-------------------------------|--------------------------------------o||
C||--------------------------------|---------------------------------------||
G||o0-0-0-0-0-0-0-0-0-0-0-0-0-0-0-0|-7-7-7-7-10-10-10-10-6-6-6-6-6-6-6-6--o||
C||--------------------------------|---------------------------------------||
G||--------------------------------|---------------------------------------||

 
    S S S S S S S S S S S S S S S S   S S S S  S  S  S  S S S S S S S S S
E||--------------------------------|---------------------------------------||
C||--------------------------------|---------------------------------------||
G||o-------------------------------|--------------------------------------o||
C||--------------------------------|---------------------------------------||
G||o0-0-0-0-0-0-0-0-0-0-0-0-0-0-0-0|-7-7-7-7-10-10-10-10-6-6-6-6-4-4-4-4--o||
C||--------------------------------|---------------------------------------||
G||--------------------------------|---------------------------------------||

 
    S S S S S S S S S S S S S S S S   S S S S  S  S  S  S S S S S S S S S
E||----------------------------------|-------------------------------------||
C||---------------------------------|--------------------------------------||
G||o-------------------------------|--------------------------------------o||
C||/7-7-7-7------------------------|---------------------------------------||
G||o---------0-0-0-0-0-0-0-0-0-0-0-0-|-7-7-7-7-10-10-10-10-6-6-6-6-4-4-4-4o||
C||-----------------------------------|------------------------------------||
G||-----------------------------------|------------------------------------||


                                                          TP
    S S S S S S S S S S S S S S S S   S S S S  S  S  S  S H
E|----------------------------------|-----------------------------|
C|----------------------------------|-----------------------------|
G|----------------------------------|---------------------x-------|
C|-/7-7-7-7-------------------------|-----------------------------|
G|----------0-0-0-0-0-0-0-0-0-0-0-0-|-7-7-7-7-10-10-10-10---------|
C|----------------------------------|-----------------------------|
G|----------------------------------|-----------------------------|

 
     S S S S S S S S  S  S  S  S S S S S   S S S S S S S S S S S S S S S S
E||--------------------------------------|----------------------------------|
C||--------------------------------------|----------------------------------|
G||o-------------------------------------|----------------------------------|
C||--------------------------------------|-----------------7-7-7-7----------|
G||o-0-0-0-0-7-7-7-7-10-10-10-10-6-6-6-6-|-9-9-9-9-9-9-9-9---------6-6-6-6--|
C||--------------------------------------|----------------------------------|
G||--------------------------------------|----------------------------------|

 
   S S S S S S S S  S  S  S  S S S S S   S S S S S S S S S S S S S S S S
E|-------------------------------------|---------------------------------|
C|-------------------------------------|---------------------------------|
G|-------------------------------------|---------------------------------|
C|-------------------------------------|-----------------7-7-7-7-7-7-7-7-|
G|-0-0-0-0-7-7-7-7-10-10-10-10-6-6-6-6-|-9-9-9-9-9-9-9-9-----------------|
C|-------------------------------------|---------------------------------|
G|-------------------------------------|---------------------------------|

 
   S S S S S S S S  S  S  S  S S S S S   S S S S S S S S S S S S S S S S
E|-------------------------------------|---------------------------------|
C|-------------------------------------|---------------------------------|
G|-------------------------------------|---------------------------------|
C|-------------------------------------|-----------------7-7-7-7---------|
G|-0-0-0-0-7-7-7-7-10-10-10-10-6-6-6-6-|-9-9-9-9-9-9-9-9---------6-6-6-6-|
C|-------------------------------------|---------------------------------|
G|-------------------------------------|---------------------------------|

 
   S S S S S S S S  S  S  S  S S S S S   S S S S S S S S S S S S S S S S
E|-------------------------------------|----------------------------------||
C|-------------------------------------|----------------------------------||
G|-------------------------------------|---------------------------------o||
C|-------------------------------------|---------7-7-7-7-9-9-9-9-9-9-9-9--||
G|-0-0-0-0-7-7-7-7-10-10-10-10-6-6-6-6-|-9-9-9-9-------------------------o||
C|-------------------------------------|----------------------------------||
G|-------------------------------------|----------------------------------||


 Breakdown
   N.C.
   S S e S S e S S e E.. +T    S S e S S e S S e E.. +T
E|---------------------------|---------------------------|
C|-x-x-x-x-x-x-x-x-x---------|-x-x-x-x-x-x-x-x-x---------|
G|-x-x-x-x-x-x-x-x-x---------|-x-x-x-x-x-x-x-x-x---------|
C|-x-x-x-x-x-x-x-x-x---------|-x-x-x-x-x-x-x-x-x---------|
G|-x-x-x-x-x-x-x-x-x---------|-x-x-x-x-x-x-x-x-x---------|
C|-x-x-x-x-x-x-x-x-x---------|-x-x-x-x-x-x-x-x-x---------|
G|-x-x-x-x-x-x-x-x-x-3b4-(3)-|-x-x-x-x-x-x-x-x-x-3b4-(3)-|

 
   S S e S S e S S e E.. +T
E|----------------------------|
C|-x-x-x-x-x-x-x-x-x----------|
G|-x-x-x-x-x-x-x-x-x----------|
C|-x-x-x-x-x-x-x-x-x----------|
G|-x-x-x-x-x-x-x-x-x----------|
C|-x-x-x-x-x-x-x-x-x----------|
G|-x-x-x-x-x-x-x-x-x-3b4-(3)--|


   Gtr III
   W                 W
E|-----------------|---------------------------|
C|-----------------|---------------------------|
G|-----------------|---------------------------|
C|-----------------|---------------------------|
G|-----------------|---------------------------|
C|-----------------|---------------------------|
G|-----------------|---------------------------|
|
 | Gtr IV
 | W                 W
E|-----------------|---------------------------|
C|-----------------|---------------------------|
G|-----------------|---------------------------|
C|-----------------|---------------------------|
G|-----------------|---------------------------|
C|-----------------|---------------------------|
G|-----------------|---------------------------|
|
 | Gtrs I, II
 | E E E E E E E E   S S e S S e S S e E.. +T
E|-----------------|---------------------------|
C|-----------------|-x-x-x-x-x-x-x-x-x---------|
G|-----------------|-x-x-x-x-x-x-x-x-x---------|
C|-----------------|-x-x-x-x-x-x-x-x-x---------|
G|-----------------|-x-x-x-x-x-x-x-x-x---------|
C|-----------------|-x-x-x-x-x-x-x-x-x---------|
G|-7-8-7-6-7-6-5-6-|-x-x-x-x-x-x-x-x-x-3b4-(3)-|

 
   H.                  E       E
E|---------------------------------------|
C|---------------------------------------|
G|---------------------------------------|
C|---------------------------------------|
G|--------------------16------19---------|
C|---------------------------------------|
G|---------------------------------------|
|
 |                     |----3-----|
 | H.                  E    E     E
E|---------------------------------------|
C|---------------------------------------|
G|-------------------------------11------|
C|--------------------12---15------------|
G|---------------------------------------|
C|---------------------------------------|
G|---------------------------------------|
 |
 | S  S e S S e S S e  E..          +T
E|---------------------------------------|
C|-x--x-x-x-x-x-x-x-x--------------------|
G|-x--x-x-x-x-x-x-x-x--------------------|
C|-x--x-x-x-x-x-x-x-x--------------------|
G|-x--x-x-x-x-x-x-x-x--------------------|
C|-x--x-x-x-x-x-x-x-x--------------------|
G|-x--x-x-x-x-x-x-x-x--3b4----------(3)--|


    |--3--|  |--3--|  |--3--|  |--3--|               |--3--|  |--3--|  |3-|
    E  E  E  E  E  E  E  E  E  E  E  E    E     E    E  E  E  E  E  E  Q  E
E|------------------------------------|-------------------------------------|
C|------------------------------------|-------------------------------------|
G|------------------------------------|-------------------------------------|
C|16h20p16----------------------------|-------------------------------------|
G|---------19p17h18-20p18p16----16h18-|-20p===18----------------------------|
C|---------------------------20-------|------------20p19p18-17h18h20-20-----|
G|------------------------------------|---------------------------------13--|
|
 |  |--3--|  |--3--|  |--3--|  |--3--|    |---3---|  |--3--|  |--3--|  |3-|
 |  E  E  E  E  E  E  E  E  E  E  E  E    E  E    E  E  E  E  E  E  E  Q  E
E|------------------------------------|-------------------------------------|
C|------------------------------------|-------------------------------------|
G|15p13p11----------11p10p=8-----6h=8-|-10p=8p===6--------------------------|
C|---------12h13p12-----------7-------|-------------7h10p=8-10p=8p=7--8h10h=|
G|------------------------------------|-------------------------------------|
C|------------------------------------|-------------------------------------|
G|------------------------------------|-------------------------------------|
 |
 |  H                 Q        Q          W
E|------------------------------------|---------------------------------------|
C|------------------------------------|---------------------------------------|
G|------------------------------------|---------------------------------------|
C|------------------------------------|---------------------------------------|
G|-------------------7s=======4s======|==9------------------------------------|
C|------------------------------------|---------------------------------------|
G|------------------------------------|---------------------------------------|

 
    +E    Q.       H
E|-------------------------------|
C|-------------------------------|
G|-------------------------------|
C|-------------------------------|
G|-------------------------------|
C|-------------------------------|
G|-(13)--------------------------|
 |
 |   E    Q.       H
E|-------------------------------|
C|-------------------------------|
G|-------------------------------|
C|--11---------------------------|
G|-------------------------------|
C|-------------------------------|
G|-------------------------------|
 |
 |   S  S e  S S e S S e E.. +T
E|-------------------------------|
C|---x--x-x--x-x-x-x-x-x---------|
G|---x--x-x--x-x-x-x-x-x---------|
C|---x--x-x--x-x-x-x-x-x---------|
G|---x--x-x--x-x-x-x-x-x---------|
C|---x--x-x--x-x-x-x-x-x---------|
G|---x--x-x--x-x-x-x-x-x-3b4-(3)-|

 
   W                           W
E|---------------------------|----------------------------|
C|---------------------------|----------------------------|
G|---------------------------|----------------------------|
C|---------------------------|----------------------------|
G|---------------------------|----------------------------|
C|---------------------------|----------------------------|
G|---------------------------|----------------------------|
 |
 | W                           W
E|---------------------------|----------------------------|
C|---------------------------|----------------------------|
G|---------------------------|----------------------------|
C|---------------------------|----------------------------|
G|---------------------------|----------------------------|
C|---------------------------|----------------------------|
G|---------------------------|----------------------------|
 |
 | S S e S S e S S e E.. +T    S S e S S e S S e E.. +T
E|---------------------------|----------------------------|
C|-x-x-x-x-x-x-x-x-x---------|-x-x-x-x-x-x-x-x-x----------|
G|-x-x-x-x-x-x-x-x-x---------|-x-x-x-x-x-x-x-x-x----------|
C|-x-x-x-x-x-x-x-x-x---------|-x-x-x-x-x-x-x-x-x----------|
G|-x-x-x-x-x-x-x-x-x---------|-x-x-x-x-x-x-x-x-x----------|
C|-x-x-x-x-x-x-x-x-x---------|-x-x-x-x-x-x-x-x-x----------|
G|-x-x-x-x-x-x-x-x-x-3b4-(3)-|-x-x-x-x-x-x-x-x-x-3b4-(3)--|


  Ab5                                       N.C.
  Gtrs I, II
   PM--------------------------|
   E Q  E E Q  E     E E E E E E E.. +T      Q  Q  Q  Q    Q  Q   Q   Q
E|---------------||-----------------------||-------------|----------------|
C|-x-x--x-x-x--x-||-----------------------||-------------|----------------|
G|-x-x--x-x-x--x-||o---------------------o||-------------|----------------|
C|-x-x--x-x-x--x-||-----------------------||-------------|----------------|
G|-x-x--x-x-x--x-||o---------------------o||-------------|----------------|
C|-3-3--3-3-3--3-||--3-3-3-3-3-3----------||-------------|----------------|
G|-1-1--1-1-1--1-||--1-1-1-1-1-1-3b4-(3)--||-4--5--6--7--|-8--9--10--11---|


   Verse 2
     N.C.
     S S S S S S S S  S  S  S  S S S S S   S S S S S S S S S S S S S S S S
E||--------------------------------------|---------------------------------|
C||--------------------------------------|---------------------------------|
G||o-------------------------------------|---------------------------------|
C||--------------------------------------|-----------------7-7-7-7---------|
G||o-0-0-0-0-7-7-7-7-10-10-10-10-6-6-6-6-|-9-9-9-9-9-9-9-9---------6-6-6-6-|
C||--------------------------------------|---------------------------------|
G||--------------------------------------|---------------------------------|

 
   S S S S S S S S  S  S  S  S S S S S   S S S S S S S S S S S S S S S S
E|-------------------------------------|---------------------------------|
C|-------------------------------------|---------------------------------|
G|-------------------------------------|---------------------------------|
C|-------------------------------------|-----------------7-7-7-7-7-7-7-7-|
G|-0-0-0-0-7-7-7-7-10-10-10-10-6-6-6-6-|-9-9-9-9-9-9-9-9-----------------|
C|-------------------------------------|---------------------------------|
G|-------------------------------------|---------------------------------|

 
   S S S S S S S S  S  S  S  S S S S S   S S S S S S S S S S S S S S S S
E|-------------------------------------|---------------------------------|
C|-------------------------------------|---------------------------------|
G|-------------------------------------|---------------------------------|
C|-------------------------------------|-----------------7-7-7-7---------|
G|-0-0-0-0-7-7-7-7-10-10-10-10-6-6-6-6-|-9-9-9-9-9-9-9-9---------6-6-6-6-|
C|-------------------------------------|---------------------------------|
G|-------------------------------------|---------------------------------|


   1.
   S S S S S S S S  S  S  S  S S S S S   S S S S S S S S S S S S S S S S
E|-------------------------------------|----------------------------------||
C|-------------------------------------|----------------------------------||
G|-------------------------------------|---------------------------------o||
C|-------------------------------------|---------7-7-7-7-9-9-9-9-9-9-9-9--||
G|-0-0-0-0-7-7-7-7-10-10-10-10-6-6-6-6-|-9-9-9-9-------------------------o||
C|-------------------------------------|----------------------------------||
G|-------------------------------------|----------------------------------||


   2.
   S S S S S S S S  S  S  S  S S S S S   S S S S S S S S  H
E|-------------------------------------|--------------------------|
C|-------------------------------------|--------------------------|
G|-------------------------------------|--------------------------|
C|-------------------------------------|---------7-7-7-7----------|
G|-0-0-0-0-7-7-7-7-10-10-10-10-6-6-6-6-|-9-9-9-9------------------|
C|-------------------------------------|-----------------17-------|
G|-------------------------------------|--------------------------|


   Chorus
    N.C.(G)
     Gtr I
     W          +W           W          W
E||-----------|------------|----------|------|
C||-----------|------------|----------|------|
G||o----------|------------|----------|------|
C||-----------|------------|----------|-4----|
G||o-6--------|-(6)--------|-4--------|------|
C||-----------|------------|----------|------|
G||-----------|------------|----------|------|


                           1.
                           Gtrs I, II
                              |--3--|  |--3--|          |--3--|  |--3--|
   H    Q  Q    H    H        E  E  E  E  E  E H        E  E  E  E  E  E H
E|------------|-----------|-------------------------|----------------------||
C|------------|-----------|-------------------------|----------------------||
G|------------|-----------|-/11-11-11-11-11-11-0----|-/12-12-12-12-12-12-0o||
C|---------4--|-----------|--/x--x--x--x--x--x-x----|--/x--x--x--x--x--x-x-||
G|-4----6-----|-6----0----|-/11-11-11-11-11-11-0----|-/12-12-12-12-12-12-0o||
C|------------|-----------|-------------------------|----------------------||
G|------------|-----------|-------------------------|----------------------||


  2.
  Gtr I
     |--3--|  |--3--|          |--3--|  |--3--|
     E  E  E  E  E  E H        E  E  E  E  E  E H
E|-------------------------|-------------------------|
C|-------------------------|-------------------------|
G|-/11-11-11-11-11-11-0----|-/12-12-12-12-12-12-0----|
C|--/x--x--x--x--x--x-x----|--/x--x--x--x--x--x-x----|
G|-/11-11-11-11-11-11-0----|-/12-12-12-12-12-12-0----|
C|-------------------------|-------------------------|
G|-------------------------|-------------------------|
|
| Gtr II
 |   |--3--|  |--3--|          |--3--|  |--3--|
 |   E  E  E  E  E  E H        E  E  E  E  E  E H
E|-------------------------|-------------------------|
C|-------------------------|-------------------------|
G|-/11-11-11-11-11-11-0----|-/13-13-13-13-13-13-0----|
C|--/x--x--x--x--x--x-x----|--/x--x--x--x--x--x-x----|
G|-/11-11-11-11-11-11-0----|-/13-13-13-13-13-13-0----|
C|-------------------------|-------------------------|
G|-------------------------|-------------------------|


 Verse 3
  N.C.(A5)
                        PM
   |---9:8---|                |---9:8---|
   E Q E Q E Q   H.      Q    E Q E Q E Q   H    H
E|-------------|------------|-------------|-----------|
C|-------------|------------|-------------|-----------|
G|-------------|------------|-------------|-----------|
C|-------------|------------|-------------|-----------|
G|-------------|------------|-------------|-----------|
C|-------------|------------|-------------|-----------|
G|-0-2-0-2-0-2-|-6-------0--|-0-2-0-2-0-2-|-6----0----|


   |---9:8---|               |---9:8---|
   E Q E Q E Q   H    H      E Q E Q E Q   W
E|-------------|-----------|-------------|------|
C|-------------|-----------|-------------|------|
G|-------------|-----------|-------------|-0----|
C|-------------|-----------|-------------|-0----|
G|-------------|-----------|-------------|-0----|
C|-------------|-----------|-------------|-0----|
G|-0-2-0-2-0-2-|-6----0----|-0-2-0-2-0-2-|-0----|


    Half Time Q=115
    N.C.(A5)
     |---9:8---| |----6----| |----6----|
     S E S E S E S S S S S S S S S S S S
E||--------------------------------------|
C||--------------------------------------|
G||o-------------------------------------|
C||--------------7-7-7-7-7-7-7-7-7-7-7-7-|
G||o-0h2-0h2-0h2-------------------------|
C||--x-x-x-x-x-x-7-7-7-7-7-7-7-7-7-7-7-7-|
G||--0h2-0h2-0h2-------------------------|


   |---9:8---| |----6----| |----6----|
   S E S E S E S S S S S S S S S S S S
E|--------------------------------------||
C|--------------------------------------||
G|-------------------------------------o||
C|-------------7-7-7-7-7-7-7-7-7-7-7-7--||
G|-0h2-0h2-0h2-------------------------o||
C|-x-x-x-x-x-x-7-7-7-7-7-7-7-7-7-7-7-7--||
G|-0h2-0h2-0h2--------------------------||


  N.C.(C5)
   |---9:8---| |----6----| |-------6-------|
   S E S E S E S S S S S S S S S S     S   S
E|---------------------------------------------|
C|---------------------------------------------|
G|---------------------------------------------|
C|-------------6-6-6-6-6-6-6-6-6-6b6.5-6b7-6b7-|
G|-3S5-3S5-3S5---------------------------------|
C|-x-x-x-x-x-x-6-6-6-6-6-6-6-6-6-6b6.5-6b7-6b7-|
G|-3S5-3S5-3S5---------------------------------|


   |---9:8---| |-----6------| |----6----|
   S E S E S E S    S S S S S S S S S S S
E|-----------------------------------------|
C|-----------------------------------------|
G|-----------------------------------------|
C|-------------5b6==5-5-5-5-5-5-5-5-5-5r5--|
G|-3S5-3S5-3S5-----------------------------|
C|-x-x-x-x-x-x-5b6==5-5-5-5-5-5-5-5-5-5r5--|
G|-3S5-3S5-3S5-----------------------------|


 Outro
   N.C.
   E. S +E  E Q   Q       E S S +S  S E Q  Q   6x
E|--------------------||--------------------------|
C|--------------------||--------------------------|
G|--------------------||o---------------------o---|
C|--------------------||--------------------------|
G|-2--2-(2)-2-3--11--||o-2-0-2-(2)-0-2-3--3--o----|
C|--------------------||--------------------------|
G|-2--2-(2)-2-3--11--||--2-0-2-(2)-0-2-3--3-------|

 
   E. S +E  E E. S +E  E   E. S +E  E Q  Q
E|-----------------------|--------------------|
C|-----------------------|--------------------|
G|-----------------------|--------------------|
C|-----------------------|--------------------|
G|-4--4-(4)-4-1--1-(1)-1-|-2--2-(2)-2-3--1----|
C|-----------------------|--------------------|
G|-4--4-(4)-4-1--1-(1)-1-|-2--2-(2)-2-3--1----|

 
     E S S +S  S E Q  Q      E. S +E  E E. S +E  E   E. S +E  E Q  Q
E||-----------------------||-----------------------|------------------|
C||-----------------------||-----------------------|------------------|
G||o---------------------o||-----------------------|------------------|
C||-----------------------||-----------------------|------------------|
G||o-2-0-2-(2)-0-2-3--3--o||-4--4-(4)-4-1--1-(1)-1-|-2--2-(2)-2-3--1--|
C||-----------------------||-----------------------|------------------|
G||--2-0-2-(2)-0-2-3--3---||-4--4-(4)-4-1--1-(1)-1-|-2--2-(2)-2-3--1--|

 
     E S S +S  S E Q  Q      E. S +E  E E. S +E  E
E||-----------------------||-----------------------|
C||-----------------------||-----------------------|
G||o---------------------o||-----------------------|
C||-----------------------||-----------------------|
G||o-2-0-2-(2)-0-2-3--3--o||-4--4-(4)-4------------|
C||-----------------------||-----------------------|
G||--2-0-2-(2)-0-2-3--3---||-4--4-(4)-4-0--0-(0)-0-|


  2/4          4/4
   E. S +E  E   E. S +E  E Q  Q
E|------------|------------------|
C|------------|------------------|
G|------------|------------------|
C|------------|------------------|
G|-1--1-(1)-1-|-2--2-(2)-2-3--1--|
C|------------|------------------|
G|-1--1-(1)-1-|-2--2-(2)-2-3--1--|

 
     E S S +S  S E Q  Q   3x     E S S +S  S E E +E    E +E     3x
E||-----------------------||-||---------------------------------||
C||-----------------------||-||---------------------------------||
G||o---------------------o||-||o-------------------------------o||
C||-----------------------||-||---------------------------------||
G||o-2-0-2-(2)-0-2-3--3--o||-||o-------------------------------o||
C||-----------------------||-||---------------------------------||
G||--2-0-2-(2)-0-2-3--3---||-||--2-0-2-(2)-0-2-2-(2)b3-2-(2)b3--||

 
   E. S +E  E E. S +E  E   +W
E|-----------------------|--------*|
C|-----------------------|--------*|
G|-----------------------|--------*|
C|-----------------------|--------*|
G|-4--4-(4)-4-1--1-(1)-1-|-(1)----*|
C|-----------------------|--------*|
G|-4--4-(4)-4-1--1-(1)-1-|-(1)----*|


--------------------------------------------------------------------------------


Duration Legend
---------------
W - whole; H - half; Q - quarter; E - 8th; S - 16th; T - 32nd; X - 64th; a - acciaccatura
+ - note tied to previous; . - note dotted; .. - note double dotted
Uncapitalized letters represent notes that are staccato (1/2 duration)
Irregular groupings are notated above the duration line
Duration letters will always appear directly above the note/fret number it represents the
duration for.  Duration letters with no fret number below them represent rests.  Multi-
bar rests are notated in the form Wxn, where n is the number of bars to rest for.  Low
melody durations appear below the staff

Tablature Legend
----------------
 h   - hammer-on
 p   - pull-off
 b   - bend
 pb  - pre-bend
 r   - bend release (if no number after the r, then release immediately)
 /  - slide into or out of (from/to "nowhere")
 s   - legato slide
 S   - shift slide
 - natural harmonic
[n]  - artificial harmonic
n(n) - tapped harmonic
 ~   - vibrato
 tr  - trill
 T   - tap
 TP  - trem. picking
 PM  - palm muting
n/  - tremolo bar dip; n = amount to dip
 n  - tremolo bar down
 n/  - tremolo bar up
/n  - tremolo bar inverted dip
 =   - hold bend; also acts as connecting device for hammers/pulls
 <> - volume swell (louder/softer)
 x   - on rhythm slash represents muted slash
 o   - on rhythm slash represents single note slash

Misc Legend
-----------
 |  - bar
||  - double bar
||o - repeat start
o|| - repeat end
*|  - double bar (ending)
 :  - bar (freetime)
 $  - Segno
 &  - Coda
Tempo markers -  = BPM(8/16=s8/s16), where s8 = swing 8ths, s16 = swing 16ths

            
            
Suggest correction
Creating personal tab
Creating personal tab
You can edit any tab online and save it as your Personal.

You can edit, replace or remove any tab part or add personal notes – all changes will be seen only by you.

Personal tabs can be accessed anytime from any device, even offline.
Learn more »
Give kudos to tab author, rate the tab!
1 2 3 4 5
comments
print report bad tab
2 comments total.
+1 reply
big bear 70 Feb 06, 2007 01:59 AM

Dude, AWESOME tab. Great work, this must've taken forever to transcribe.

-2 reply
Tias 181 Jun 15, 2007 01:18 AM

wtf is that kinda tuning

guest
You may want to rate the tab now too:
select rating
Wanna post a correction for this tab? Suggest correction