Oops, an error
Loading. Please wait.

Paradise tab

version 2
version 2

Whole song

Interactive

3,305 views 1 this week
no commentswrite comment
1 2 3 4 5
3 more votes to show rating
add to favorites
×
Save as Personal and add changes to this tab that will be seen only by you. Learn more ›
×
You can save this tab as Personal to edit and correct it or add notes. All changes will be seen only by you. Learn more »
launch autoscroll
font size
0
reset
how to read this tab
guitar tuner
backing track
0:00
0:00
edit
Autoscroll
slow
fast
+/-
esc
set tempo
stop
#----------------------------------PLEASE NOTE---------------------------------#
#This file is the author's own work and represents their interpretation of the #
#song. You may only use this file for private study, scholarship, or research. #
#------------------------------------------------------------------------------#

PARADISE
As recorded by Stratovarius
(From the 1997 Album VISIONS)

Transcribed by Diego!
        

Music by Stratovarius

Gtr I (D# G# C# F# A# D#) - 'dist 1 '
Gtr II (D# G# C# F# A# D#) - 'dist 2'
Gtr III (D# G# C# F# A# D#) - 'dist 3 solo'

 Intro
  Q=180
  B5
 4/4
  Gtr I
    PM----------------------------------------------------------------|
  E E E E E E E E   E E E E E E E E   E E E E E E E E   E E E E E E E E
|-----------------|-----------------|-----------------|-----------------|
|-----------------|-----------------|-----------------|-----------------|
|-----------------|-----------------|-----------------|-----------------|
|-----------------|-----------------|-----------------|-----------------|
|-9-9-9-9-9-9-9-9-|-9-9-9-9-9-9-9-9-|-9-9-9-9-9-9-9-9-|-9-9-9-9-9-9-9-9-|
|-7-7-7-7-7-7-7-7-|-7-7-7-7-7-7-7-7-|-7-7-7-7-7-7-7-7-|-7-7-7-7-7-7-7-7-|


  PM----------------------------|     PM------------------------------|
  E E E E E E E E   E E E E E E E E   E E E E E E E E   E E E E E E E E
|-----------------|-----------------|-----------------|-----------------|
|-----------------|-----------------|-----------------|-----------------|
|-----------------|-----------------|-----------------|-----------------|
|-----------------|-----------------|-----------------|-----------------|
|-9-9-9-9-9-9-9-9-|-9-9-9-9-9-9-9-9-|-9-9-9-9-9-9-9-9-|-9-9-9-9-9-9-9-9-|
|-7-7-7-7-7-7-7-7-|-7-7-7-7-7-7-7-7-|-7-7-7-7-7-7-7-7-|-7-7-7-7-7-7-7-7-|
|
| Gtr II
| W                 H       Q   E E   E E Q   H         W
|-----------------|-----------------|-----------------|-----------------|
|-----------------|-----------------|-----------------|-----------------|
|-----------------|-----------------|-----------------|-----------------|
|-----------------|---------------9-|-9---------------|-----------------|
|-----------------|---------------9-|-9---------------|-----------------|
|-----------------|---------------7-|-7---------------|-----------------|


  A5                                  B5                  G5  D5  A5  B5
    PM--------------------------|       PM----------|
  E E E E E E E E   E E E E E E E E   E E E E E E E E   E E E E E E E E
|-----------------|-----------------|-----------------|-----------------|
|-----------------|-----------------|-----------------|-----------------|
|-----------------|-----------------|-----------------|-------7-7-------|
|-----------------|-----------------|-----------------|-9-5-5-7-7-7-7-9-|
|-7-7-7-7-7-7-7-7-|-7-7-7-7-7-7-7-7-|-9-9-9-9-9-9-9-9-|-9-5-5-5-5-7-7-9-|
|-5-5-5-5-5-5-5-5-|-5-5-5-5-5-5-5-5-|-7-7-7-7-7-7-7-7-|-7-3-3-----5-5-7-|
|
| W                 H       Q   E E   E E Q   H         W
|-----------------|-----------------|-----------------|-----------------|
|-----------------|-----------------|-----------------|-----------------|
|-----------------|-----------------|-----------------|-----------------|
|-----------------|---------------7-|-9---------------|-----------------|
|-----------------|---------------7-|-9---------------|-----------------|
|-----------------|---------------5-|-7---------------|-----------------|


                                                                    A5
    PM--------------------------|       PM----------------------------|
  E E E E E E E E   E E E E E E E E   E E E E E E E E   E E E E E E E E
|-----------------|-----------------|-----------------|-----------------|
|-----------------|-----------------|-----------------|-----------------|
|-----------------|-----------------|-----------------|-----------------|
|-----------------|-----------------|-----------------|-----------------|
|-9-9-9-9-9-9-9-9-|-9-9-9-9-9-9-9-9-|-9-9-9-9-9-9-9-9-|-9-9-9-9-9-9-7-7-|
|-7-7-7-7-7-7-7-7-|-7-7-7-7-7-7-7-7-|-7-7-7-7-7-7-7-7-|-7-7-7-7-7-7-5-5-|
|
| E E Q   H         H       Q   E E   E E Q   H         W
|-----------------|-----------------|-----------------|-----------------|
|-----------------|-----------------|-----------------|-----------------|
|-----------------|-----------------|-----------------|-----------------|
|-9---------------|---------------9-|-9---------------|-----------------|
|-9---------------|---------------9-|-9---------------|-----------------|
|-7---------------|---------------7-|-7---------------|-----------------|


  G5         F#5        B5
  Gtrs I, II
  W          W          Q  Q  E E Q    Q  Q  E E Q
|----------|----------|--------------|--------------|
|----------|----------|--------------|--------------|
|----------|----------|--------------|--------------|
|-5--------|-4--------|--------------|--------------|
|-5--------|-4--------|-9--9--9-9-9--|-9--9--9-9-9--|
|-3--------|-2--------|-7--7--7-7-7--|-7--7--7-7-7--|


                               Verse
                 G5             B5
  Gtrs I, II
  Q  Q  E E Q     W             Q  Q  E E Q    Q  Q  E E Q
|--------------|-------------||--------------|--------------|
|--------------|-------------||--------------|--------------|
|--------------|-------------||--------------|--------------|
|--------------|-[5]\--------||--------------|--------------|
|-9--9--9-9-9--|--5----------||-9--9--9-9-9--|-9--9--9-9-9--|
|-7--7--7-7-7--|--3----------||-7--7--7-7-7--|-7--7--7-7-7--|


                                A5
  Q  Q  E E Q    Q  Q  E E Q    Q  Q  E E Q    Q  Q  E E Q
|--------------|--------------|--------------|--------------|
|--------------|--------------|--------------|--------------|
|--------------|--------------|--------------|--------------|
|--------------|--------------|--------------|--------------|
|-9--9--9-9-9--|-9--9--9-9-9--|-7--7--7-7-7--|-7--7--7-7-7--|
|-7--7--7-7-7--|-7--7--7-7-7--|-5--5--5-5-5--|-5--5--5-5-5--|


  B5               G5  D5  A5  B5
  Q  Q  E E Q    E E E E E E E E   Q  Q  E E Q    Q  Q  E E Q
|--------------|-----------------|--------------|--------------|
|--------------|-----------------|--------------|--------------|
|--------------|-----------------|--------------|--------------|
|--------------|-------7-7-------|--------------|--------------|
|-9--9--9-9-9--|-9-5-5-5-5-7-7-9-|-9--9--9-9-9--|-9--9--9-9-9--|
|-7--7--7-7-7--|-7-3-3-----5-5-7-|-7--7--7-7-7--|-7--7--7-7-7--|


                                 G5         F#5
                           PM|
  Q  Q  E E Q    Q  Q  E E E E   W          W
|--------------|---------------|----------|------|
|--------------|---------------|----------|------|
|--------------|---------------|----------|------|
|--------------|---------------|----------|------|
|-9--9--9-9-9--|-9--9--9-9-7-7-|-5--------|-4----|
|-7--7--7-7-7--|-7--7--7-7-5-5-|-3--------|-2----|


                          Pre-Chorus
  B5                       D5
  W          +W            W          +W
|----------|------------||----------|--------|
|----------|------------||----------|--------|
|----------|------------||----------|--------|
|----------|------------||-7--------|-(7)----|
|-9--------|-(9)--------||-5--------|-(5)----|
|-7--------|-(7)--------||----------|--------|


  A5                      E5
  W          +W           W          +W
|----------|------------|----------|--------|
|----------|------------|----------|--------|
|----------|------------|----------|--------|
|----------|------------|-9--------|-(9)----|
|-7--------|-(7)--------|-7--------|-(7)----|
|-5--------|-(5)--------|----------|--------|


  B5                      D5
  W          +W           W          +W
|----------|------------|----------|--------|
|----------|------------|----------|--------|
|----------|------------|----------|--------|
|----------|------------|-7--------|-(7)----|
|-9--------|-(9)--------|-5--------|-(5)----|
|-7--------|-(7)--------|----------|--------|


  A5                      F#5
                          PM------------------------------|
  W          +W           E E E E E E E E   E E E E E E E E
|----------|------------|-----------------|-----------------|
|----------|------------|-----------------|-----------------|
|----------|------------|-----------------|-----------------|
|----------|------------|-----------------|-----------------|
|-7--------|-(7)--------|-4-4-4-4-4-4-4-4-|-4-4-4-4-4-4-4-4-|
|-5--------|-(5)--------|-2-2-2-2-2-2-2-2-|-2-2-2-2-2-2-2-2-|


                                      Chorus
                                       B5
  PM------------------------------|
  E E E E E E E E   E E E E E E E E    Q  Q  E E Q    Q  Q  E E Q
|-----------------|-----------------||--------------|--------------|
|-----------------|-----------------||--------------|--------------|
|-----------------|-----------------||--------------|--------------|
|-----------------|-----------------||-9--9--9-9-9--|-9--9--9-9-9--|
|-4-4-4-4-4-4-4-4-|-4-4-4-4-4-4-4-4-||-9--9--9-9-9--|-9--9--9-9-9--|
|-2-2-2-2-2-2-2-2-|-2-2-2-2-2-2-2-2-||-7--7--7-7-7--|-7--7--7-7-7--|


  G5                            D5
  Q  Q  E E Q    Q  Q  E E Q    Q  Q  E E Q    Q  Q  E E Q
|--------------|--------------|--------------|--------------|
|--------------|--------------|--------------|--------------|
|--------------|--------------|-7--7--7-7-7--|-7--7--7-7-7--|
|-5--5--5-5-5--|-5--5--5-5-5--|-7--7--7-7-7--|-7--7--7-7-7--|
|-5--5--5-5-5--|-5--5--5-5-5--|-5--5--5-5-5--|-5--5--5-5-5--|
|-3--3--3-3-3--|-3--3--3-3-3--|--------------|--------------|


  A5             F#/A#          B5
  Q  Q  E E Q    Q  Q  E E Q    Q  Q  E E Q    Q  Q  E E Q
|--------------|--------------|--------------|--------------|
|--------------|--------------|--------------|--------------|
|--------------|--------------|--------------|--------------|
|-7--7--7-7-7--|-8--8--8-8-8--|-9--9--9-9-9--|-9--9--9-9-9--|
|-7--7--7-7-7--|-9--9--9-9-9--|-9--9--9-9-9--|-9--9--9-9-9--|
|-5--5--5-5-5--|-6--6--6-6-6--|-7--7--7-7-7--|-7--7--7-7-7--|


  G5                            F#5
  Q  Q  E E Q    Q  Q  E E Q    E E E E E E E E   Q  Q  H
|--------------|--------------|-----------------|------------|
|--------------|--------------|-----------------|------------|
|--------------|--------------|-----------------|------------|
|-5--5--5-5-5--|-5--5--5-5-5--|-4-4-4-4-4-4-4-4-|-4----------|
|-5--5--5-5-5--|-5--5--5-5-5--|-4-4-4-4-4-4-4-4-|-4----------|
|-3--3--3-3-3--|-3--3--3-3-3--|-2-2-2-2-2-2-2-2-|-2----------|


 Pre-Verse
  B5                                           G5
  Q  Q  E E Q    Q  Q  E E Q    Q  Q  E E Q    E E Q  H
|--------------|--------------|--------------|-------------|
|--------------|--------------|--------------|-------------|
|--------------|--------------|--------------|-------------|
|-9--9--9-9-9--|-9--9--9-9-9--|-9--9--9-9-9--|-5-5---------|
|-9--9--9-9-9--|-9--9--9-9-9--|-9--9--9-9-9--|-5-5---------|
|-7--7--7-7-7--|-7--7--7-7-7--|-7--7--7-7-7--|-3-3---------|


 Verse
  B5
  Gtrs I, II
  W          +W           W          +W
|----------|------------|----------|--------|
|----------|------------|----------|--------|
|----------|------------|----------|--------|
|----------|------------|----------|--------|
|-9--------|-(9)--------|-9--------|-(9)----|
|-7--------|-(7)--------|-7--------|-(7)----|


  A5                      B5           G5  D5  A5  B5
  W          +W           W          E E E E E E E E
|----------|------------|----------|-----------------|
|----------|------------|----------|-----------------|
|----------|------------|----------|-----------------|
|----------|------------|----------|-------7-7-------|
|-7--------|-(7)--------|-9--------|-9-5-5-5-5-7-7-9-|
|-5--------|-(5)--------|-7--------|-7-3-3-----5-5-7-|


                                                         A5
                                                         PM|
  Q  Q  E E Q    Q  Q  E E Q    Q  Q  E E Q    Q  Q  E E E E
|--------------|--------------|--------------|---------------|
|--------------|--------------|--------------|---------------|
|--------------|--------------|--------------|---------------|
|--------------|--------------|--------------|---------------|
|-9--9--9-9-9--|-9--9--9-9-9--|-9--9--9-9-9--|-9--9--9-9-7-7-|
|-7--7--7-7-7--|-7--7--7-7-7--|-7--7--7-7-7--|-7--7--7-7-5-5-|


  G5         F#5        B5
  W          W          W          +W
|----------|----------|----------|--------|
|----------|----------|----------|--------|
|----------|----------|----------|--------|
|----------|----------|----------|--------|
|-5--------|-4--------|-9--------|-(9)----|
|-3--------|-2--------|-7--------|-(7)----|


 Pre-Chorus
  D5                      A5
  W          +W           W          +W
|----------|------------|----------|--------|
|----------|------------|----------|--------|
|----------|------------|----------|--------|
|-7--------|-(7)--------|----------|--------|
|-5--------|-(5)--------|-7--------|-(7)----|
|----------|------------|-5--------|-(5)----|


  E5                      B5
  W          +W           W          +W
|----------|------------|----------|--------|
|----------|------------|----------|--------|
|----------|------------|----------|--------|
|-9--------|-(9)--------|----------|--------|
|-7--------|-(7)--------|-9--------|-(9)----|
|----------|------------|-7--------|-(7)----|


  D5                      A5
  W          +W           W          +W
|----------|------------|----------|--------|
|----------|------------|----------|--------|
|----------|------------|----------|--------|
|-7--------|-(7)--------|----------|--------|
|-5--------|-(5)--------|-7--------|-(7)----|
|----------|------------|-5--------|-(5)----|


  F#5
  PM------------------------------------------------------------------|
  E E E E E E E E   E E E E E E E E   E E E E E E E E   E E E E E E E E
|-----------------|-----------------|-----------------|-----------------|
|-----------------|-----------------|-----------------|-----------------|
|-----------------|-----------------|-----------------|-----------------|
|-----------------|-----------------|-----------------|-----------------|
|-4-4-4-4-4-4-4-4-|-4-4-4-4-4-4-4-4-|-4-4-4-4-4-4-4-4-|-4-4-4-4-4-4-4-4-|
|-2-2-2-2-2-2-2-2-|-2-2-2-2-2-2-2-2-|-2-2-2-2-2-2-2-2-|-2-2-2-2-2-2-2-2-|


 Chorus
  B5                            G5
  Q  Q  E E Q    Q  Q  E E Q    Q  Q  E E Q    Q  Q  E E Q
|--------------|--------------|--------------|--------------|
|--------------|--------------|--------------|--------------|
|--------------|--------------|--------------|--------------|
|-9--9--9-9-9--|-9--9--9-9-9--|-5--5--5-5-5--|-5--5--5-5-5--|
|-9--9--9-9-9--|-9--9--9-9-9--|-5--5--5-5-5--|-5--5--5-5-5--|
|-7--7--7-7-7--|-7--7--7-7-7--|-3--3--3-3-3--|-3--3--3-3-3--|


  D5                            A5             F#/A#
  Q  Q  E E Q    Q  Q  E E Q    Q  Q  E E Q    Q  Q  E E Q
|--------------|--------------|--------------|--------------|
|--------------|--------------|--------------|--------------|
|-7--7--7-7-7--|-7--7--7-7-7--|--------------|--------------|
|-7--7--7-7-7--|-7--7--7-7-7--|-7--7--7-7-7--|-8--8--8-8-8--|
|-5--5--5-5-5--|-5--5--5-5-5--|-7--7--7-7-7--|-9--9--9-9-9--|
|--------------|--------------|-5--5--5-5-5--|-6--6--6-6-6--|


  B5                            G5
  Q  Q  E E Q    Q  Q  E E Q    Q  Q  E E Q    Q  Q  E E Q
|--------------|--------------|--------------|--------------|
|--------------|--------------|--------------|--------------|
|--------------|--------------|--------------|--------------|
|-9--9--9-9-9--|-9--9--9-9-9--|-5--5--5-5-5--|-5--5--5-5-5--|
|-9--9--9-9-9--|-9--9--9-9-9--|-5--5--5-5-5--|-5--5--5-5-5--|
|-7--7--7-7-7--|-7--7--7-7-7--|-3--3--3-3-3--|-3--3--3-3-3--|


  F#5
                                Gt
  E E E E E E E E   E E Q  H
|-----------------|-------------||
|-----------------|-------------||
|-----------------|-------------||
|-4-4-4-4-4-4-4-4-|-4-----------||
|-4-4-4-4-4-4-4-4-|-4-----------||
|-2-2-2-2-2-2-2-2-|-2-----------||
|
| Gtr II                        Gt
| E E E E E E E E   E E Q  H
|-----------------|-------------||
|-----------------|-------------||
|-----------------|-------------||
|-4-4-4-4-4-4-4-4-|-4-----------||
|-4-4-4-4-4-4-4-4-|-4-----------||
|-2-2-2-2-2-2-2-2-|-2-----------||


 Guitar Solo
  B5
 r III
           ~~~~~                 ~~~~~~~~
   E      +H..            Q      Q   +Q.   S S
|----------------------|-------------------7-9-|
|-10b12==(10)r---------|-10b12--10--(10)-------|
|----------------------|-----------------------|
|----------------------|-----------------------|
|----------------------|-----------------------|
|----------------------|-----------------------|
|
|rs I, II
|  Q           Q  H      +W
|----------------------|-----------------------|
|----------------------|-----------------------|
|----------------------|-----------------------|
|----------------------|-----------------------|
|--9-----------9--9----|-(9)-------------------|
|--7-----------7--7----|-(7)-------------------|


  G5                                     E5
                      PM     PM   ~~~            PM
   E E E E E E E E    E  E E E E +Q.     E. E. E E. E E.      E. E. E   H
|-10-9-7-5-3-2-----|-------------------|-------------------|-----------------|
|--------------5-3-|--2----------------|-------------------|--------5b7r5----|
|------------------|-----4-2-----------|-------------------|--2--4-----------|
|------------------|---------5-4-(4)---|---------2--4-5----|-----------------|
|------------------|-------------------|-------2-----------|-----------------|
|------------------|-------------------|-2--3--------------|-----------------|
|
|  W                 +W                  W                   +W
|------------------|-------------------|-------------------|-----------------|
|------------------|-------------------|-------------------|-----------------|
|------------------|-------------------|-------------------|-----------------|
|--5---------------|-(5)---------------|-2-----------------|-(2)-------------|
|--5---------------|-(5)---------------|-2-----------------|-(2)-------------|
|--3---------------|-(3)---------------|-0-----------------|-(0)-------------|


  A5
  E E E E E E E E    E  E E E E E E E
|-----------------|-------------------|
|-----------------|-------------------|
|-----9---7---6---|--6----6-----------|
|---9---9---9---7-|-----7---7-9---7---|
|-----------------|-------------9---9-|
|-----------------|-------------------|
|
| W                 +W
|-----------------|-------------------|
|-----------------|-------------------|
|-----------------|-------------------|
|-7---------------|-(7)---------------|
|-7---------------|-(7)---------------|
|-5---------------|-(5)---------------|


  B5
                         T
  Q.   E Q  Q      +Q    Q      +Q   Q
|----------------|-------------------------|
|----------------|------12b14r=(12)--------|
|-----------4b6r=|=(4)---------------4b6r==|
|-9--------------|-------------------------|
|------9-9-------|-------------------------|
|----------------|-------------------------|
|
| W                +W
|----------------|-------------------------|
|----------------|-------------------------|
|----------------|-------------------------|
|-9--------------|-(9)---------------------|
|-9--------------|-(9)---------------------|
|-7--------------|-(7)---------------------|


  G5
       T                  T
  +E   Q      E Q    +E   E       +Q   Q     H
|------------------------------|--------------------|
|-----12b14r=12----------12b14r|=(12)---------------|
|-(4)-----------4b6r=(4)-------|-------4b6r==4------|
|------------------------------|--------------------|
|------------------------------|--------------------|
|------------------------------|--------------------|
|
|  W                              +H        +Q   Q
|------------------------------|--------------------|
|------------------------------|--------------------|
|------------------------------|--------------------|
|--5---------------------------|--(5)-------(5)-----|
|--5---------------------------|--(5)-------(5)-----|
|--3---------------------------|--(3)-------(3)-----|


  E5
                     ~~~~~
  E E E E E E E E    H.            Q
|-----------------|-------------------|
|---------7---8---|--8b10-------------|
|-----9-----------|---------------12--|
|---9---9---9---9-|-------------------|
|-----------------|-------------------|
|-----------------|-------------------|
|
| W                 +H       +Q    Q
|-----------------|-------------------|
|-----------------|-------------------|
|-9---------------|-(9)------(9)------|
|-9---------------|-(9)------(9)------|
|-7---------------|-(7)------(7)------|
|-----------------|-------------------|


  A5
   S  S S  S  S S  S  S S  S  S S  S  S  S S
|--------------------------------------------|
|--------------------------------------------|
|-12-11-9----11-9---------------9-11-12-11-9-|
|---------12------12-11-9-11-12--------------|
|--------------------------------------------|
|--------------------------------------------|
|
|  W
|--------------------------------------------|
|--------------------------------------------|
|--------------------------------------------|
|--7-----------------------------------------|
|--7-----------------------------------------|
|--5-----------------------------------------|


   S  S  S  S S  S  S S  S  S  S  S E  S  S
|--------------------------------------------|
|--------------------------------------------|
|-11--9---------------9-11--9----11-9--------|
|-------12-11-9-11-12---------12------12-11--|
|--------------------------------------------|
|--------------------------------------------|
|
| +H                    +Q          Q
|--------------------------------------------|
|--------------------------------------------|
|--------------------------------------------|
|-(7)-------------------(7)------------------|
|-(7)-------------------(7)------------------|
|-(5)-------------------(5)------------------|


  B5                          G5
   W           +Q   Q  H      W           H     Q  E S S
|-----------|---------------|----------|-----------------|
|-----------|---------------|----------|-----------------|
|-11--------|-(11)----------|----------|-------------6-7-|
|-----------|---------------|----------|-----------------|
|-----------|---------------|----------|-----------------|
|-----------|---------------|----------|-----------------|
|
|  W           +W             W          +H     H
|-----------|---------------|----------|-----------------|
|-----------|---------------|----------|-----------------|
|-----------|---------------|----------|-----------------|
|--9--------|--(9)----------|-5--------|-(5)-------------|
|--9--------|--(9)----------|-5--------|-(5)-------------|
|--7--------|--(7)----------|-3--------|-(3)-------------|


  D5                            A5           F#/A#
   H    H       Q   E E Q  Q    H.      Q    H    E E Q
|------------|----------------|------------|-------------|
|-10---------|-10-----8----7--|------------|-------------|
|------------|----------------|-9-------7--|-6----6h7p6--|
|------------|----------------|------------|-------------|
|------------|----------------|------------|-------------|
|------------|----------------|------------|-------------|
|
|  W           +W               W            W
|------------|----------------|------------|-------------|
|------------|----------------|------------|-------------|
|--7---------|-(7)------------|------------|-------------|
|--7---------|-(7)------------|-7----------|-8-----------|
|--5---------|-(5)------------|-7----------|-9-----------|
|------------|----------------|-5----------|-6-----------|


 Chorus
  B5                                   G5
  E S S Q  +H         +W               +H      Q   Q    W
|-------------------|----------------|----------------|--------------|
|-------------------|----------------|----------------|--------------|
|-6h7p6-------------|----------------|----------------|--------------|
|-------9--(9)------|-(9)------------|-(9)-----9------|--------------|
|-------------------|----------------|----------------|--------------|
|-------------------|----------------|----------------|--------------|
|
| Q     Q   E  E Q     Q   Q  E E Q     Q   Q  E E Q    Q  Q  E E Q
|-------------------|----------------|----------------|--------------|
|-------------------|----------------|----------------|--------------|
|-------------------|----------------|----------------|--------------|
|-9-----9---9--9-9--|--9---9--9-9-9--|--5---5--5-5-5--|-5--5--5-5-5--|
|-9-----9---9--9-9--|--9---9--9-9-9--|--5---5--5-5-5--|-5--5--5-5-5--|
|-7-----7---7--7-7--|--7---7--7-7-7--|--3---3--3-3-3--|-3--3--3-3-3--|


  D5                            A5             F#/A#
  Gtrs I, II
  Q  Q  E E Q    Q  Q  E E Q    Q  Q  E E Q    Q  Q  E E Q
|--------------|--------------|--------------|--------------|
|--------------|--------------|--------------|--------------|
|-7--7--7-7-7--|-7--7--7-7-7--|--------------|--------------|
|-7--7--7-7-7--|-7--7--7-7-7--|-7--7--7-7-7--|-8--8--8-8-8--|
|-5--5--5-5-5--|-5--5--5-5-5--|-7--7--7-7-7--|-9--9--9-9-9--|
|--------------|--------------|-5--5--5-5-5--|-6--6--6-6-6--|


    B5                            G5
    Q  Q  E E Q    Q  Q  E E Q    Q  Q  E E Q    Q  Q  E E Q
||---------------|--------------|--------------|---------------|
||o--------------|--------------|--------------|---------------|
||---------------|--------------|--------------|---------------|
||--9--9--9-9-9--|-9--9--9-9-9--|-5--5--5-5-5--|-5--5--5-5-5---|
||o-9--9--9-9-9--|-9--9--9-9-9--|-5--5--5-5-5--|-5--5--5-5-5---|
||--7--7--7-7-7--|-7--7--7-7-7--|-3--3--3-3-3--|-3--3--3-3-3---|


  D5                            A5             F#/A#
  Q  Q  E E Q    Q  Q  E E Q    Q  Q  E E Q    Q  Q  E E Q   3x
|--------------|--------------|--------------|---------------||
|--------------|--------------|--------------|--------------o||
|-7--7--7-7-7--|-7--7--7-7-7--|--------------|---------------||
|-7--7--7-7-7--|-7--7--7-7-7--|-7--7--7-7-7--|-8--8--8-8-8---||
|-5--5--5-5-5--|-5--5--5-5-5--|-7--7--7-7-7--|-9--9--9-9-9--o||
|--------------|--------------|-5--5--5-5-5--|-6--6--6-6-6---||


   Outro
    A5
    Gtr I
     Q.     E  +S  S E  Q      Q.    E +S  S E Q
||--------------------------|----------------------|
||o-------------------------|----------------------|
||--------------------------|--9-----7-(7)-----5---|
||--10-----10-(10)-----10---|-10-----9-(9)-----7---|
||o-12------7--(7)-----12---|----------------------|
||--------------------------|----------------------|
|
|   Gtr II
|    Q   Q      E    E  E E    Q   Q    E    E E E
||--------------------------|----------------------|
||o-------------------------|----------------------|
||--------------------------|----------------------|
||--------------------------|----------------------|
||o--7---7------7----7--7-7-|--7---7----7----7-7-7-|
||---5---5------5----5--5-5-|--5---5----5----5-5-5-|


  E#5
  Q.    E +S  S E Q      Q.     E  +S  S E  Q
|---------------------|--------------------------|
|---------------------|--------------------------|
|-5---------------5---|--9------9--(9)-----------|
|-7-----7-(7)-----7---|-10-----10-(10)-----10----|
|-------8-(8)---------|--------------------12----|
|---------------------|--------------------------|
|
| Q   Q    E    E E E    Q   Q      E    E  E E
|---------------------|--------------------------|
|---------------------|--------------------------|
|---------------------|--------------------------|
|---------------------|--------------------------|
|-3---3----3----3-3-3-|--3---3------3----3--3-3--|
|-1---1----1----1-1-1-|--1---1------1----1--1-1--|


  C5
   Q.      E  +S  S  E  Q       Q.     E +S  S  E  Q
|----------------------------|--------------------------|
|----------------------------|--------------------------|
|--9--------------------9----|--7------5-(5)------------|
|-10------10-(10)------10----|--9------7-(7)-------9----|
|---------10-(10)------------|--------------------11----|
|----------------------------|--------------------------|
|
|  Q    Q      E     E  E  E    Q    Q    E     E  E  E
|----------------------------|--------------------------|
|----------------------------|--------------------------|
|----------------------------|--------------------------|
|----------------------------|--------------------------|
|-10---10-----10----10-10-10-|-10---10---10----10-10-10-|
|--8----8------8-----8--8--8-|--8----8----8-----8--8--8-|


  G5                     E/G#
  Q.    E +S  S E  Q     E  E  +E   E  +S  S E  Q
|----------------------|-----------------------------||
|----------------------|-9--------------------------o||
|-7-----5-(5)----------|---10-(10)-12-(12)-----10----||
|-9-----7-(7)------9---|-----------15-(15)-----12----||
|-----------------11---|----------------------------o||
|----------------------|-----------------------------||
|
| Q   Q    E    E  E E   Q      Q       E    E  E E
|----------------------|-----------------------------||
|----------------------|----------------------------o||
|----------------------|-----------------------------||
|----------------------|-----------------------------||
|-5---5----5----5--5-5-|-7------7-------7----7--7-7-o||
|-3---3----3----3--3-3-|-4------4-------4----4--4-4--||


  A5
   Q.     E  +S  S E  Q      Q.    E +S  S E Q
|-------------------------|----------------------|
|-------------------------|----------------------|
|-------------------------|--9-----7-(7)-----5---|
|-10-----10-(10)-----10---|-10-----9-(9)-----7---|
|-12------7--(7)-----12---|----------------------|
|-------------------------|----------------------|
|
|  Q   Q      E    E  E E    Q   Q    E    E E E
|-------------------------|----------------------|
|-------------------------|----------------------|
|-------------------------|----------------------|
|-------------------------|----------------------|
|--7---7------7----7--7-7-|--7---7----7----7-7-7-|
|--5---5------5----5--5-5-|--5---5----5----5-5-5-|


  E#5
  Q.    E +S  S E Q      Q.     E  +S  S E  Q
|---------------------|-------------------------|
|---------------------|-------------------------|
|-5---------------5---|--9------9--(9)----------|
|-7-----7-(7)-----7---|-10-----10-(10)-----10---|
|-------8-(8)---------|--------------------12---|
|---------------------|-------------------------|
|
| Q   Q    E    E E E    Q   Q      E    E  E E
|---------------------|-------------------------|
|---------------------|-------------------------|
|---------------------|-------------------------|
|---------------------|-------------------------|
|-3---3----3----3-3-3-|--3---3------3----3--3-3-|
|-1---1----1----1-1-1-|--1---1------1----1--1-1-|


  C5
   Q.      E  +S  S  E  Q       Q.     E +S  S  E  Q
|----------------------------|--------------------------|
|----------------------------|--------------------------|
|--9--------------------9----|--7------5-(5)------------|
|-10------10-(10)------10----|--9------7-(7)-------9----|
|---------10-(10)------------|--------------------11----|
|----------------------------|--------------------------|
|
|  Q    Q      E     E  E  E    Q    Q    E     E  E  E
|----------------------------|--------------------------|
|----------------------------|--------------------------|
|----------------------------|--------------------------|
|----------------------------|--------------------------|
|-10---10-----10----10-10-10-|-10---10---10----10-10-10-|
|--8----8------8-----8--8--8-|--8----8----8-----8--8--8-|


  G5                     E/G#
  Q.    E +S  S E  Q     E  E  +E   E  +S  S E  Q
|----------------------|----------------------------|
|----------------------|-9--------------------------|
|-7-----5-(5)----------|---10-(10)-12-(12)-----10---|
|-9-----7-(7)------9---|-----------15-(15)-----12---|
|-----------------11---|----------------------------|
|----------------------|----------------------------|
|
| Q   Q    E    E  E E   Q      Q       E    E  E E
|----------------------|----------------------------|
|----------------------|----------------------------|
|----------------------|----------------------------|
|----------------------|----------------------------|
|-5---5----5----5--5-5-|-7------7-------7----7--7-7-|
|-3---3----3----3--3-3-|-4------4-------4----4--4-4-|


  A5
   Q.     E  +S  S E  Q      Q.    E +S  S E Q
|-------------------------|----------------------|
|-------------------------|----------------------|
|-------------------------|--9-----7-(7)-----5---|
|-10-----10-(10)-----10---|-10-----9-(9)-----7---|
|-12------7--(7)-----12---|----------------------|
|-------------------------|----------------------|
|
|  Q   Q      E    E  E E    Q   Q    E    E E E
|-------------------------|----------------------|
|-------------------------|----------------------|
|-------------------------|----------------------|
|-------------------------|----------------------|
|--7---7------7----7--7-7-|--7---7----7----7-7-7-|
|--5---5------5----5--5-5-|--5---5----5----5-5-5-|


  E#5
  Q.    E +S  S E Q      Q.     E  +S  S E  Q
|---------------------|-------------------------|
|---------------------|-------------------------|
|-5---------------5---|--9------9--(9)----------|
|-7-----7-(7)-----7---|-10-----10-(10)-----10---|
|-------8-(8)---------|--------------------12---|
|---------------------|-------------------------|
|
| Q   Q    E    E E E    Q   Q      E    E  E E
|---------------------|-------------------------|
|---------------------|-------------------------|
|---------------------|-------------------------|
|---------------------|-------------------------|
|-3---3----3----3-3-3-|--3---3------3----3--3-3-|
|-1---1----1----1-1-1-|--1---1------1----1--1-1-|


  C5
   Q.      E  +S  S  E  Q       Q.     E +S  S  E  Q
|----------------------------|--------------------------|
|----------------------------|--------------------------|
|--9--------------------9----|--7------5-(5)------------|
|-10------10-(10)------10----|--9------7-(7)-------9----|
|---------10-(10)------------|--------------------11----|
|----------------------------|--------------------------|
|
|  Q    Q      E     E  E  E    Q    Q    E     E  E  E
|----------------------------|--------------------------|
|----------------------------|--------------------------|
|----------------------------|--------------------------|
|----------------------------|--------------------------|
|-10---10-----10----10-10-10-|-10---10---10----10-10-10-|
|--8----8------8-----8--8--8-|--8----8----8-----8--8--8-|


  G5                     E/G#
  Q.    E +S  S E  Q     E  E  +E   E  +S  S E Q
|----------------------|--------------------------*|
|----------------------|-9------------------------*|
|-7-----5-(5)----------|---10-(10)-12-(12)--------*|
|-9-----7-(7)------9---|-----------15-------------*|
|-----------------11---|--------------------------*|
|----------------------|--------------------------*|
|
| Q   Q    E    E  E E   Q      Q       H
|----------------------|--------------------------*|
|----------------------|--------------------------*|
|----------------------|--------------------------*|
|----------------------|--------------------------*|
|-5---5----5----5--5-5-|-7------7-----------------*|
|-3---3----3----3--3-3-|-4------4-----------------*|



Duration Legend
---------------
W - whole; H - half; Q - quarter; E - 8th; S - 16th; T - 32nd; X - 64th; a - acciaccatura
+ - note tied to previous; . - note dotted; .. - note double dotted
Uncapitalized letters represent notes that are staccato (1/2 duration)
Irregular groupings are notated above the duration line
Duration letters will always appear directly above the note/fret number it represents the
duration for.  Duration letters with no fret number below them represent rests.  Multi-
bar rests are notated in the form Wxn, where n is the number of bars to rest for.  Low
melody durations appear below the staff

Tablature Legend
----------------
 h   - hammer-on
 p   - pull-off
 b   - bend
 pb  - pre-bend
 r   - bend release (if no number after the r, then release immediately)
 /\  - slide into or out of (from/to "nowhere")
 s   - legato slide
 S   - shift slide
 - natural harmonic
[n]  - artificial harmonic
n(n) - tapped harmonic
 ~   - vibrato
 tr  - trill
 T   - tap
 TP  - trem. picking
 PM  - palm muting
\n/  - tremolo bar dip; n = amount to dip
 \n  - tremolo bar down
 n/  - tremolo bar up
/n\  - tremolo bar inverted dip
 =   - hold bend; also acts as connecting device for hammers/pulls
 <> - volume swell (louder/softer)
 x   - on rhythm slash represents muted slash
 o   - on rhythm slash represents single note slash

Misc Legend
-----------
 |  - bar
||  - double bar
||o - repeat start
o|| - repeat end
*|  - double bar (ending)
 :  - bar (freetime)
 $  - Segno
 &  - Coda
Tempo markers -  = BPM(8/16=s8/s16), where s8 = swing 8ths, s16 = swing 16ths


            
            
Suggest correction
Creating personal tab
Creating personal tab
You can edit any tab online and save it as your Personal.

You can edit, replace or remove any tab part or add personal notes – all changes will be seen only by you.

Personal tabs can be accessed anytime from any device, even offline.
Learn more »
Give kudos to tab author, rate the tab!
1 2 3 4 5
comments
print report bad tab
guest
You may want to rate the tab now too:
select rating
Wanna post a correction for this tab? Suggest correction