Oops, an error
Loading. Please wait.

Stratovarius tab

version 2
version 2

Whole song

Interactive

1,247 views 1 this week
no commentswrite comment
1 2 3 4 5
3 more votes to show rating
add to favorites
×
Save as Personal and add changes to this tab that will be seen only by you. Learn more ›
×
You can save this tab as Personal to edit and correct it or add notes. All changes will be seen only by you. Learn more »
launch autoscroll
font size
0
reset
how to read this tab
guitar tuner
edit
Autoscroll
slow
fast
+/-
esc
set tempo
stop
#----------------------------------PLEASE NOTE---------------------------------#
#This file is the author's own work and represents their interpretation of the #
#song. You may only use this file for private study, scholarship, or research. #
#------------------------------------------------------------------------------#

STRATOVARIUS
As recorded by Stratovarius
(From the 1995 Album FOURTH DIMENSION)

Transcribed by Argonaut
        

Words by Instrumental Music by Timo Tolkki

Gtr I (Eb Ab Db Gb Bb Eb) - 'Timo Tolkki'
Gtr II (Eb Ab Db Gb Bb Eb) - 'Timo Tolkki'

   Intro
    Moderate Rock Q=135
    Bm                Am                Bm
   4/4
    Gtr I
     S  S  S  S  S  S  S  S  S  S  S  S  S  S  S  S
||--------------------------------------------------|
||o-17-18-17-15----15-17-18-17-15----15-17-18-17-15-|
||--------------18----------------18----------------|
||--------------------------------------------------|
||o-------------------------------------------------|
||--------------------------------------------------|


        Am                Em
   S  S  S  S  S  S  S  S  S  S  S  S  S  S  S  S
|-------------------------------15----------------|
|----15-17-18-17-15----15-17-18----18-17-15----15-|
|-18----------------18----------------------18----|
|-------------------------------------------------|
|-------------------------------------------------|
|-------------------------------------------------|


  Bm                Am                Bm
   S  S  S  S  S  S  S  S  S  S  S  S  S  S  S  S
|-------------------------------------------------|
|-17-18-17-15----15-17-18-17-15----15-17-18-17-15-|
|-------------18----------------18----------------|
|-------------------------------------------------|
|-------------------------------------------------|
|-------------------------------------------------|


        Am                Em
   S  S  S  S  S  S  S  S  S  S  S  S  E E
|-------------------------------15-18-17----||
|----15-17-18-17-15----15-17-18------------o||
|-18----------------18----------------------||
|-------------------------------------------||
|------------------------------------------o||
|-------------------------------------------||


   Theme 1
    $
    Bm                Am                Bm
     S  S  S  S  S  S  S  S  S  S  S  S  S  S  S  S
||--------------------------------------------------|
||o-17-18-17-15----15-17-18-17-15----15-17-18-17-15-|
||--------------18----------------18----------------|
||--------------------------------------------------|
||o-------------------------------------------------|
||--------------------------------------------------|


        Am                Em
   S  S  S  S  S  S  S  S  S  S  S  S  S  S  S  S
|-------------------------------15-----------------|
|----15-17-18-17-15----15-17-18----18-17-15----15--|
|-18----------------18----------------------18-----|
|--------------------------------------------------|
|--------------------------------------------------|
|--------------------------------------------------|


  Bm                Am                Bm
   S  S  S  S  S  S  S  S  S  S  S  S  S  S  S  S
|-------------------------------------------------|
|-17-18-17-15----15-17-18-17-15----15-17-18-17-15-|
|-------------18----------------18----------------|
|-------------------------------------------------|
|-------------------------------------------------|
|-------------------------------------------------|


        Am                Em
   S  S  S  S  S  S  S  S  S  S  S  S  E E
|-------------------------------15-18-17----||
|----15-17-18-17-15----15-17-18------------o||
|-18----------------18----------------------||
|-------------------------------------------||
|------------------------------------------o||
|-------------------------------------------||


 Bridge
  Bbm
   |------6-------|  |------6-------|  |------6-------|
   S  S  S  S  S  S  S  S  S  S  S  S  S  S  S  S  S  S  T  T  T  T  T  T  S
|-18-17-15-------------------------------------------------------------------|
|----------18-17-15-18-17-15----------17-15-14-------------------------------|
|----------------------------18-15-14----------17-15-17-17-15-14-------------|
|----------------------------------------------------------------17-15-14----|
|-------------------------------------------------------------------------17-|
|----------------------------------------------------------------------------|


  Dbm
   W           +H      Q   Q
|-----------|-------------------|
|-----------|-------------11----|
|-----------|---------12--------|
|-----------|-------------------|
|-16--------|-(16)--------------|
|-----------|-------------------|


 Theme 2
  F                       G
   S  S  S  S  S  S  S  S  S  S  S  S  S  S  S  S
|-13h17----17-13h17----17-15h18----18-15h18----18-|
|-------15----------15----------17----------17----|
|-------------------------------------------------|
|-------------------------------------------------|
|-------------------------------------------------|
|-------------------------------------------------|


  F                       Em
   S  S  S  S  S  S  S  S  S  S  S  S  S  S  S  S
|-13h17----17-13h17----17-12h15----15-12h15----15-|
|-------15----------15----------14----------14----|
|-------------------------------------------------|
|-------------------------------------------------|
|-------------------------------------------------|
|-------------------------------------------------|


  F                       G
   S  S  S  S  S  S  S  S  S  S  S  S  S  S  S  S
|-13h17----17-13h17----17-15h18----18-15h18----18-|
|-------15----------15----------17----------17----|
|-------------------------------------------------|
|-------------------------------------------------|
|-------------------------------------------------|
|-------------------------------------------------|


  F                       Am
                           |------6-------|
   S  S  S  S  S  S  S  S  S  S  S  S  S  S  E E
|-13h17----17-13h17----17-------------13-15-17---|
|-------15----------15----14-14-15-17------------|
|------------------------------------------------|
|------------------------------------------------|
|------------------------------------------------|
|------------------------------------------------|


  F                       G
   S  S  S  S  S  S  S  S  S  S  S  S  S  S  S  S
|-13h17----17-13h17----17-15h18----18-15h18----18-|
|-------15----------15----------17----------17----|
|-------------------------------------------------|
|-------------------------------------------------|
|-------------------------------------------------|
|-------------------------------------------------|


  F                       Em
   S  S  S  S  S  S  S  S  S  S  S  S  S  S  S  S
|-13h17----17-13h17----17-12h15----15-12h15----15-|
|-------15----------15----------14----------14----|
|-------------------------------------------------|
|-------------------------------------------------|
|-------------------------------------------------|
|-------------------------------------------------|


    Dm                      Em
     S  S  S  S  S  S  S  S  S  S  S  S  S  S  S  S
||--10h13----13-15p10-13p10-12h15----15-17p12-15p12-|
||o-------11----------------------13----------------|
||--------------------------------------------------|
||--------------------------------------------------|
||o-------------------------------------------------|
||--------------------------------------------------|


  F                       G
   S  S  S  S  S  S  S  S  S  S  S  S  S  S  S  S
|-13h17----17-18p13-17p13-15h18----18-20p15-18p15--|
|-------15----------------------17-----------------|
|--------------------------------------------------|
|--------------------------------------------------|
|--------------------------------------------------|
|--------------------------------------------------|


                                                         To Coda
  Am                      Bbm                    Am
                                                              ~~
   S  S  S  S  S  S  S  S  S  S  S  S  E     E    E  E  E  E  H
|-17h20----20-22p17-20p17-18h22----22-22b24-22-|-21-18--------------||
|-------18----------------------20-------------|-------22-20-22----o||
|----------------------------------------------|--------------------||
|----------------------------------------------|--------------------||
|----------------------------------------------|-------------------o||
|----------------------------------------------|--------------------||


 Bridge
                                                                   D.S. al
  Bb
   |------6-------|  |------6-------|  |------6-------|  |------6-------|
   S  S  S  S  S  S  S  S  S  S  S  S  S  S  S  S  S  S  S  S  S  S  S  S
|-18-17-15----------------------------------------------------------------|
|----------18-17-15-18-17-15----------17-15-14----------------------------|
|----------------------------18-15-14----------17-15-14-17-15-14----------|
|----------------------------------------------------------------17-15-14-|
|-------------------------------------------------------------------------|
|-------------------------------------------------------------------------|


 Coda
  Dm
   ~~
   W
|--------|
|--------|
|--------|
|--------|
|-17-----|
|--------|


 Pre-Solo
  &
  Bb
   |------6-------|  |------6-------|  |------6-------|  |------6-------|
   S  S  S  S  S  S  S  S  S  S  S  S  S  S  S  S  S  S  S  S  S  S  S  S
|-18-17-15----------------------------------------------------------------|
|----------18-17-15-18-17-15----------17-15-14----------------------------|
|----------------------------18-15-14----------17-15-14-17-15-14----------|
|----------------------------------------------------------------17-15-14-|
|-------------------------------------------------------------------------|
|-------------------------------------------------------------------------|


  Dm
   ~~
         |--4:3---|
   H     S  S  S  S  S   E E
|----------------13-17-/22---|
|-------------15-------------|
|----------14----------------|
|-------15-------------------|
|-17-------------------------|
|----------------------------|


 Guitar Solo 1
  Am
  Gtr II
                  ~~~~~~~    PM------|  ~~~      PM-
                             |---5---|
   H         +E   E  +Q      E E E E E  Q.   +S  S
|-------------------------|------------------------|
|-------------------------|------------------------|
|-12b14=====(12)r12-(12)--|-10-9-7-6---------------|
|-------------------------|----------8-[7]---(7)---|
|-------------------------|----------------------8-|
|-------------------------|------------------------|


 -----------|             PM------------|         ~
  |----6----| |----6----| |-3-| |-3-|
  S S S S S S S S S S S S E E E E E E   E E E.  S Q  +Q
|-------------------------------------|--------------------|
|-------------------------------------|--------------------|
|-----------6-6h7h9-------------------|--------------------|
|-----5-7-8---------7h8p5-----5-------|--------------------|
|-7-8---------------------7-8---8-7-5-|-4------------------|
|-------------------------------------|---6-6b8r6-5--(5)\--|


  C
  Gtr I
   Q       +Q    +H
|-19b20===(19)r=(19)----|
|-----------------------|
|-----------------------|
|-----------------------|
|-----------------------|
|-----------------------|


   |------6-------|  |------6-------|  |------6-------|  |------6-------|
   S  S  S  S  S  S  S  S  S  S  S  S  S  S  S  S  S  S  S  S  S  S  S  S
|-20-19-17----------------17-19-20-19-17-19-17----------------------------|
|----------20-19-17-19-20----------------------20-19-17----17-19-17-------|
|-------------------------------------------------------20----------20-19-|
|-------------------------------------------------------------------------|
|-------------------------------------------------------------------------|
|-------------------------------------------------------------------------|


   |------6-------|  |------6-------|  |------6-------|  |------6-------|
   S  S  S  S  S  S  S  S  S  S  S  S  S  S  S  S  S  S  S  S  S  S  S  S
|-------------------------------------------------------------------------|
|----------------17-19-17----17-------------------------------------------|
|-17----17-19-20----------20----20-19-17----19-17-------------------------|
|----21----------------------------------21-------21-19-17----19-17-------|
|----------------------------------------------------------21-------21-19-|
|-------------------------------------------------------------------------|


   |------6-------|  |------6-------|  |------6-------|  |------6-------|
   S  S  S  S  S  S  S  S  S  S  S  S  S  S  S  S  S  S  S  S  S  S  S  S
|-------------------------------------------------------------------19-20--|
|----------------------------------------------17-19-------17-19-20--------|
|-------------------------16-17-19----16-17-19-------17-19-----------------|
|-------17-19-21-16-17-19----------19--------------------------------------|
|-19-21--------------------------------------------------------------------|
|--------------------------------------------------------------------------|


 Bridge Section
  Em                           F#m
  Gtr II
   H                             H
|--------------------------------------|
|--------------------------------------|
|--9----------------------------11-----|
|--------------------------------------|
|--------------------------------------|
|--------------------------------------|
|
| Gtr I
|                                >
|  |------6-------|
|  S  S  S  S  S  S  S  S  +E   +H
|-19-17----19-17-----------------------|
|-------20-------20-19-17-(17)-(17)----|
|--------------------------------------|
|--------------------------------------|
|--------------------------------------|
|--------------------------------------|


  Am      Bm       Em     F#m     G     Bm
    H       H        H     H       H      H
|----------------|--------14----|-15----/19----|
|---8-----/12----|-/17----------|--------------|
|----------------|--------------|--------------|
|----------------|--------------|--------------|
|----------------|--------------|--------------|
|----------------|--------------|--------------|
|
|  +W                W             W
|----------------|--------------|--------------|
|-(17)-----------|--------------|--------------|
|----------------|--------------|--------------|
|----------------|--------------|--------------|
|----------------|--------------|--------------|
|----------------|--------------|--------------|


 Theme 3
  Em                      Am             F#m     Em
                                                  ~~
   S  S  S  S  S  S  S  S   E  E  E  E    Q   Q   H
|----------12--------------------------|---------------|
|-------12----12-----------------------|---------------|
|----12----------12----12-/14----------|---------------|
|-14----------------14--------14-------|-16--12--14----|
|--------------------------------15-12-|---------------|
|--------------------------------------|---------------|
|
|  W                                      W
|--------------------------------------|---------------|
|--------------------------------------|---------------|
|--------------------------------------|---------------|
|--------------------------------------|---------------|
|--------------------------------------|---------------|
|--------------------------------------|---------------|


  Em                      Am             F#m      G
                                                   ~~
   S  S  S  S  S  S  S  S   E  E  E  E    Q    Q   H
|----------12--------------------------|----------------|
|-------12----12-----------------------|----------------|
|----12----------12----12-/14----------|----------------|
|-14----------------14--------14-------|-16--/19--17----|
|--------------------------------15-12-|----------------|
|--------------------------------------|----------------|
|
|                                                  ~~
|  W                                      Q    Q   H
|--------------------------------------|----------------|
|--------------------------------------|----------------|
|--------------------------------------|-----/17--16----|
|--------------------------------------|----------------|
|--------------------------------------|----------------|
|--------------------------------------|----------------|


  Em                      Em             F#m     Em
                                                  ~~
   S  S  S  S  S  S  S  S   E  E  E  E    Q   Q   H
|----------12--------------------------|---------------|
|-------12----12-----------------------|---------------|
|----12----------12----12-/14----------|---------------|
|-14----------------14--------14-------|-16--12--14----|
|--------------------------------15-12-|---------------|
|--------------------------------------|---------------|
|
|  W                                      W
|--------------------------------------|---------------|
|--------------------------------------|---------------|
|--------------------------------------|---------------|
|--------------------------------------|---------------|
|--------------------------------------|---------------|
|--------------------------------------|---------------|


  Em                      Am             F#m
   S  S  S  S  S  S  S  S   E  E  E  E    H      H
|----------12--------------------------|--------------|
|-------12----12-----------------------|--------------|
|----12----------12----12-/14----------|--------------|
|-14----------------14--------14-------|-16----/19----|
|--------------------------------15-12-|--------------|
|--------------------------------------|--------------|
|
|  W                                      H      H
|--------------------------------------|--------------|
|--------------------------------------|--------------|
|--------------------------------------|-------/17----|
|--------------------------------------|--------------|
|--------------------------------------|--------------|
|--------------------------------------|--------------|


  Em
   >
   \1
   ~~~~~~~~~~~~~~~~~~~~~~~~~~~~~~~
   W            +W            +W           W
|------------|-------------|-------------|------||
|------------|-------------|-------------|------||
|------------|-------------|-------------|------||
|-17---------|-(17)--------|-(17)--------|------||
|------------|-------------|-------------|------||
|------------|-------------|-------------|------||
|
|  >
|  \1
|  ~~~~~~~~~~~~~~~~~~~~~~~~~~~~~~~
|  W            +W            +W           W
|------------|-------------|-------------|------||
|------------|-------------|-------------|------||
|-16---------|-(16)--------|-(16)--------|------||
|------------|-------------|-------------|------||
|------------|-------------|-------------|------||
|------------|-------------|-------------|------||


 Guitar Break
  Em
 3/4                 4/4
  Gtr I
  PM------------------------------------------------------------------|
  |-3-| |-3-| |-3-|   |-3-| |-3-| |-3-| |-3-|   |-3-| |-3-| |-3-| |-3-|
  E E E E E E E E E   E E E E E E E E E E E E   E E E E E E E E E E E E
|-------------------|-------------------------|--------------------------|
|-------------------|-------------------------|--------------------------|
|-------------------|-------------------------|--------------------------|
|-------------------|-------------------------|--------------------------|
|-7-7-7-7-7-7-7-7-7-|-7-7-7-7-7-7-7-7-7-7-7-7-|-7-7-7-7-7-7-7-7-7-7-7-7--|
|-------------------|-------------------------|--------------------------|


  PM-------------------------------------------------
  |-3-| |-3-| |-3-| |-3-|   |-3-| |-3-| |-3-| |-3-|
  E E E E E E E E E E E E   E E E E E E E E E E E E
|-------------------------|-------------------------|
|-------------------------|-------------------------|
|-------------------------|-------------------------|
|-------------------------|-------------------------|
|-7-7-7-7-7-7-7-7-7-7-7-7-|-7-7-7-7-7-7-7-7-7-7-7-7-|
|-------------------------|-------------------------|


 -------------------------------------------------|
  |-3-| |-3-| |-3-| |-3-|   |-3-| |-3-| |-3-| |-3-|
  E E E E E E E E E E E E   E E E E E E E E E E E E
|-------------------------|----------------------------|
|-------------------------|----------------------------|
|-------------------------|----------------------------|
|-------------------------|----------------------------|
|-7-7-7-7-7-7-7-7-7-7-7-7-|-7-7-7-7-7-7-7-7-7-7-7-7----|
|-------------------------|----------------------------|


  PM-------------------------------------------------
  |-3-| |-3-| |-3-| |-3-|   |-3-| |-3-| |-3-| |-3-|
  E E E E E E E E E E E E   E E E E E E E E E E E E
|-------------------------|-------------------------|
|-------------------------|-------------------------|
|-------------------------|-------------------------|
|-------------------------|-------------------------|
|-7-7-7-7-7-7-7-7-7-7-7-7-|-7-7-7-7-7-7-7-7-7-7-7-7-|
|-------------------------|-------------------------|


 -------------------------------------------------|
  |-3-| |-3-| |-3-| |-3-|   |-3-| |-3-| |-3-| |-3-|
  E E E E E E E E E E E E   E E E E E E E E E E E E
|-------------------------|----------------------------|
|-------------------------|----------------------------|
|-------------------------|----------------------------|
|-------------------------|----------------------------|
|-7-7-7-7-7-7-7-7-7-7-7-7-|-7-7-7-7-7-7-7-7-7-7-7-7----|
|-------------------------|----------------------------|


 Guitar Break (Drums Enter)
  Em
  PM-------------------------------------------------
  |-3-| |-3-| |-3-| |-3-|   |-3-| |-3-| |-3-| |-3-|
  E E E E E E E E E E E E   E E E E E E E E E E E E
|-------------------------|-------------------------|
|-------------------------|-------------------------|
|-------------------------|-------------------------|
|-------------------------|-------------------------|
|-7-7-7-7-7-7-7-7-7-7-7-7-|-7-7-7-7-7-7-7-7-7-7-7-7-|
|-------------------------|-------------------------|


 -------------------------------------------------|
  |-3-| |-3-| |-3-| |-3-|   |-3-| |-3-| |-3-| |-3-|
  E E E E E E E E E E E E   E E E E E E E E E E E E
|-------------------------|----------------------------|
|-------------------------|----------------------------|
|-------------------------|----------------------------|
|-------------------------|----------------------------|
|-7-7-7-7-7-7-7-7-7-7-7-7-|-7-7-7-7-7-7-7-7-7-7-7-7----|
|-------------------------|----------------------------|


 Theme 4
  E5
  Gtr I
  PM---------------------------------------------------
  |-3-| |-3-| |-3-| |-3-|    |-3--| |-3-| |-3-| |-3-|
  E E E E E E E E E E E E    E  E E E E E E E E E E E
|-------------------------|---------------------------|
|-------------------------|---------------------------|
|-------------------------|---------------------------|
|-------------------------|---------------------------|
|-7-7-7-7-7-7-7-7-7-7-7-7-|--7--7-7-7-7-7-7-7-7-7-7-7-|
|-------------------------|---------------------------|
|
| Gtr II
| W                         +W
|-------------------------|---------------------------|
|-------------------------|---------------------------|
|-------------------------|---------------------------|
|-9-----------------------|-(9)-----------------------|
|-7-----------------------|-(7)-----------------------|
|-------------------------|---------------------------|


  D5
 ---------------------------------------------------|
  |-3-| |-3-| |-3-| |-3-|    |-3--| |-3-| |-3-| |-3-|
  E E E E E E E E E E E E    E  E E E E E E E E E E E
|-------------------------|------------------------------|
|-------------------------|------------------------------|
|-------------------------|------------------------------|
|-------------------------|------------------------------|
|-7-7-7-7-7-7-7-7-7-7-7-7-|--7--7-7-7-7-7-7-7-7-7-7-7----|
|-------------------------|------------------------------|
|
| W                         +W
|-------------------------|------------------------------|
|-------------------------|------------------------------|
|-------------------------|------------------------------|
|-7-----------------------|-(7)--------------------------|
|-5-----------------------|-(5)--------------------------|
|-------------------------|------------------------------|


  G5
  PM---------------------------------------------------
  |-3-| |-3-| |-3-| |-3-|    |-3--| |-3-| |-3-| |-3-|
  E E E E E E E E E E E E    E  E E E E E E E E E E E
|-------------------------|---------------------------|
|-------------------------|---------------------------|
|-------------------------|---------------------------|
|-------------------------|---------------------------|
|-7-7-7-7-7-7-7-7-7-7-7-7-|--7--7-7-7-7-7-7-7-7-7-7-7-|
|-------------------------|---------------------------|
|
| W                         +W
|-------------------------|---------------------------|
|-------------------------|---------------------------|
|-7-----------------------|-(7)-----------------------|
|-5-----------------------|-(5)-----------------------|
|-------------------------|---------------------------|
|-------------------------|---------------------------|


  C5
 ---------------------------------------------------|
  |-3-| |-3-| |-3-| |-3-|    |-3--| |-3-| |-3-| |-3-|
  E E E E E E E E E E E E    E  E E E E E E E E E E E
|-------------------------|------------------------------|
|-------------------------|------------------------------|
|-------------------------|------------------------------|
|-------------------------|------------------------------|
|-7-7-7-7-7-7-7-7-7-7-7-7-|--7--7-7-7-7-7-7-7-7-7-7-7----|
|-------------------------|------------------------------|
|
| W                         +W
|-------------------------|------------------------------|
|-------------------------|------------------------------|
|-------------------------|------------------------------|
|-5-----------------------|-(5)--------------------------|
|-3-----------------------|-(3)--------------------------|
|-------------------------|------------------------------|


  Em
    PM-----------------------------------------------------------------
    |-3--| |-3-|    |--3--| |-3-|      |--3--| |-3-|    |--3--| |-3-|
    E  E E E E E    E   E E E E E      E   E E E E E    E   E E E E E
|---------------------------------|-----------------------------------|
|---------------------------------|-----------------------------------|
|---------------------------------|-----------------------------------|
|---------------------------------|-----------------------------------|
|---7--7-7-7-7-7----7---7-7-7-7-7-|----7---7-7-7-7-7----7---7-7-7-7-7-|
|---------------------------------|-----------------------------------|
|
|   H               H                  H                H
|---------------------------------|-----------------------------------|
|-/17\-----------/(17)\-----------|-/(17)\-----------/(17)\-----------|
|---------------------------------|-----------------------------------|
|---------------------------------|-----------------------------------|
|---------------------------------|-----------------------------------|
|---------------------------------|-----------------------------------|


 ---------------------------------------------------------------------|
     |--3--| |-3-|    |--3--| |-3-|      |--3--| |-3-|    |--3--| |-3-|
     E   E E E E E    E   E E E E E      E   E E E E E    E   E E E E E
|-----------------------------------|--------------------------------------|
|-----------------------------------|--------------------------------------|
|-----------------------------------|--------------------------------------|
|-----------------------------------|--------------------------------------|
|----7---7-7-7-7-7----7---7-7-7-7-7-|----7---7-7-7-7-7----7---7-7-7-7-7----|
|-----------------------------------|--------------------------------------|
|
|    H                H                  H                H
|-----------------------------------|--------------------------------------|
|-/(17)\-----------/(17)\-----------|-/(17)\-----------/(17)\--------------|
|-----------------------------------|--------------------------------------|
|-----------------------------------|--------------------------------------|
|-----------------------------------|--------------------------------------|
|-----------------------------------|--------------------------------------|


  E5
  PM---------------------------------------------------
  |-3-| |-3-| |-3-| |-3-|    |-3--| |-3-| |-3-| |-3-|
  E E E E E E E E E E E E    E  E E E E E E E E E E E
|-------------------------|---------------------------|
|-------------------------|---------------------------|
|-------------------------|---------------------------|
|-------------------------|---------------------------|
|-7-7-7-7-7-7-7-7-7-7-7-7-|--7--7-7-7-7-7-7-7-7-7-7-7-|
|-------------------------|---------------------------|
|
| W                         +W
|-------------------------|---------------------------|
|-------------------------|---------------------------|
|-------------------------|---------------------------|
|-9-----------------------|-(9)-----------------------|
|-7-----------------------|-(7)-----------------------|
|-------------------------|---------------------------|


  D5
 ---------------------------------------------------|
  |-3-| |-3-| |-3-| |-3-|    |-3--| |-3-| |-3-| |-3-|
  E E E E E E E E E E E E    E  E E E E E E E E E E E
|-------------------------|------------------------------|
|-------------------------|------------------------------|
|-------------------------|------------------------------|
|-------------------------|------------------------------|
|-7-7-7-7-7-7-7-7-7-7-7-7-|--7--7-7-7-7-7-7-7-7-7-7-7----|
|-------------------------|------------------------------|
|
| W                         +W
|-------------------------|------------------------------|
|-------------------------|------------------------------|
|-------------------------|------------------------------|
|-7-----------------------|-(7)--------------------------|
|-5-----------------------|-(5)--------------------------|
|-------------------------|------------------------------|


  G5
  PM---------------------------------------------------
  |-3-| |-3-| |-3-| |-3-|    |-3--| |-3-| |-3-| |-3-|
  E E E E E E E E E E E E    E  E E E E E E E E E E E
|-------------------------|---------------------------|
|-------------------------|---------------------------|
|-------------------------|---------------------------|
|-------------------------|---------------------------|
|-7-7-7-7-7-7-7-7-7-7-7-7-|--7--7-7-7-7-7-7-7-7-7-7-7-|
|-------------------------|---------------------------|
|
| W                         +W
|-------------------------|---------------------------|
|-------------------------|---------------------------|
|-7-----------------------|-(7)-----------------------|
|-5-----------------------|-(5)-----------------------|
|-------------------------|---------------------------|
|-------------------------|---------------------------|


  Bb5
 -----------------------------------------------------|
   |-3-| |-3-| |-3-| |-3-|     |-3--| |-3-| |-3-| |-3-|
   E E E E E E E E E E E E     E  E E E E E E E E E E E
|--------------------------|-------------------------------|
|--------------------------|-------------------------------|
|--------------------------|-------------------------------|
|--------------------------|-------------------------------|
|--7-7-7-7-7-7-7-7-7-7-7-7-|---7--7-7-7-7-7-7-7-7-7-7-7----|
|--------------------------|-------------------------------|
|
|  W                          +W
|--------------------------|-------------------------------|
|--------------------------|-------------------------------|
|-10-----------------------|-(10)--------------------------|
|--8-----------------------|--(8)--------------------------|
|--------------------------|-------------------------------|
|--------------------------|-------------------------------|


  Em
    PM-----------------------------------------------------------------
    |-3--| |-3-|    |--3--| |-3-|      |--3--| |-3-|    |--3--| |-3-|
    E  E E E E E    E   E E E E E      E   E E E E E    E   E E E E E
|---------------------------------|-----------------------------------|
|---------------------------------|-----------------------------------|
|---------------------------------|-----------------------------------|
|---------------------------------|-----------------------------------|
|---7--7-7-7-7-7----7---7-7-7-7-7-|----7---7-7-7-7-7----7---7-7-7-7-7-|
|---------------------------------|-----------------------------------|
|
|   H               H                  H                H
|---------------------------------|-----------------------------------|
|-/17\-----------/(17)\-----------|-/(17)\-----------/(17)\-----------|
|---------------------------------|-----------------------------------|
|---------------------------------|-----------------------------------|
|---------------------------------|-----------------------------------|
|---------------------------------|-----------------------------------|


 ---------------------------------------------------------------------|
     |--3--| |-3-|    |--3--| |-3-|      |--3--| |-3-|    |--3--| |-3-|
     E   E E E E E    E   E E E E E      E   E E E E E    E   E E E E E
|-----------------------------------|--------------------------------------|
|-----------------------------------|--------------------------------------|
|-----------------------------------|--------------------------------------|
|-----------------------------------|--------------------------------------|
|----7---7-7-7-7-7----7---7-7-7-7-7-|----7---7-7-7-7-7----7---7-7-7-7-7----|
|-----------------------------------|--------------------------------------|
|
|    H                H                  H                H
|-----------------------------------|--------------------------------------|
|-/(17)\-----------/(17)\-----------|-/(17)\-----------/(17)\--------------|
|-----------------------------------|--------------------------------------|
|-----------------------------------|--------------------------------------|
|-----------------------------------|--------------------------------------|
|-----------------------------------|--------------------------------------|


   Theme 5
    Em                                    G
    Gtr I
        PM----|     PM----|       PM----|       PM--|
    |-3-| |-3-| |-3-| |-3-|   |-3-| |-3-| |-3-| |-3-|
    E E E E E E E E E E E E   E E E E E E E E E E E E
||--------------------------|-------------------------|
||o-------------------------|-------------------------|
||--------------------------|-------------------------|
||--------------------------|-------------5-4-5-7-5-4-|
||o-5h7-7-7-7-7-5h7-7-7-7-7-|-5h7-7-7-7-7-------------|
||--------------------------|-------------------------|


  Em                                    G
      PM----|     PM----|       PM----| ~~~~~
  |-3-| |-3-| |-3-| |-3-|   |-3-| |-3-|
  E E E E E E E E E E E E   E E E E E E Q  Q
|-------------------------|--------------------||
|-------------------------|-------------------o||
|-------------------------|--------------------||
|-------------------------|-------------5--4---||
|-5h7-7-7-7-7-5h7-7-7-7-7-|-5h7-7-7-7-7-------o||
|-------------------------|--------------------||


    F#m                                   Am
        PM----|     PM----|       PM----|       PM--|
    |-3-| |-3-| |-3-| |-3-|   |-3-| |-3-| |-3-| |-3-|
    E E E E E E E E E E E E   E E E E E E E E E E E E
||--------------------------|-------------------------|
||o-------------------------|-------------------------|
||--------------------------|-------------------------|
||--------------------------|-------------7-6-7-9-7-6-|
||o-7h9-9-9-9-9-7h9-9-9-9-9-|-7h9-9-9-9-9-------------|
||--------------------------|-------------------------|


  F#m                                   Am
      PM----|     PM----|       PM----| ~~~~~
  |-3-| |-3-| |-3-| |-3-|   |-3-| |-3-|
  E E E E E E E E E E E E   E E E E E E Q  Q
|-------------------------|----------------------||
|-------------------------|---------------------o||
|-------------------------|----------------------||
|-------------------------|-------------7--6-----||
|-7h9-9-9-9-9-7h9-9-9-9-9-|-7h9-9-9-9-9---------o||
|-------------------------|----------------------||


 Guitar Solo 2
  Bm
   a      +W            +Q     H.
|-14b15==(14)--------|-(14)r--14-------|
|--------------------|-----------------|
|--------------------|-----------------|
|--------------------|-----------------|
|--------------------|-----------------|
|--------------------|-----------------|


   a      +H.       a        +Q      +Q    +Q    +H
|-16b18==(16)------14b14.5==(14)--|-(14)r=(14)--(14)----|
|---------------------------------|---------------------|
|---------------------------------|---------------------|
|---------------------------------|---------------------|
|---------------------------------|---------------------|
|---------------------------------|---------------------|


   |-----5-----|  |-----5-----|     |--4:3---|  |-----5-----|
   S  S  S  S  S  S  S  S  S  S  S  S  S  S  S  S  S  S  S  S
|-15-14-12----------------------------------------------------|
|----------15-14-12-11-15-14-12-------15-14-12-14-12----------|
|-------------------------------15-12----------------15-14-12-|
|-------------------------------------------------------------|
|-------------------------------------------------------------|
|-------------------------------------------------------------|


   |-----5-----|                                              |--4:5---|
   S  S  S  S  S  Q       +Q    +Q      +E   E  +Q    +E   S  S  S  S  S
|------------------------------------|-----------------------------------|
|------------------------------------|-----------------------------------|
|-11---------------------------------|-----------------------------------|
|----14-12-11------------------------|--------------------------11-12-14-|
|-------------14-13b14===(13)r=(13)--|-(13)-13-(13)--(13)-13-14----------|
|------------------------------------|-----------------------------------|


            |--3--|  |--4:3---|  |-----5-----|  |-----5-----|
   S  S  S  S  S  S  S  S  S  S  S  S  S  S  S  S  S  S  S  S
|-------------------------------------------------------------|
|-------------------------------------------------------12-14-|
|----------11h12p11----------------11-12-14-12-11-12-14-------|
|-11-12-14----------14-12-11-12-14----------------------------|
|-------------------------------------------------------------|
|-------------------------------------------------------------|


                                                                         ~~~
   |-----5-----|  |--4:3---|
   S  S  S  S  S  S  S  S  S      +S   +Q    +E   +E     S  S  E  +Q     H
|----------12-14-15-14-12-14b15==(14)-(14)--(14)r(14)-|-12--------------------|
|-12-14-15--------------------------------------------|----15-14-(14)---------|
|-----------------------------------------------------|----------------/14----|
|-----------------------------------------------------|-----------------------|
|-----------------------------------------------------|-----------------------|
|-----------------------------------------------------|-----------------------|


                              PM-----------------------------------------|
   |--3--|  |--3--|  |--3--|  |--3--|    |--3--|  |--3--|  |--3--|  |--3--|
   E  E  E  E  E  E  E  E  E  E  E  E    E  E  E  E  E  E  E  E  E  E  E  E
|-------------------------------------|-------------------------------------|
|-------------------------------------|-------------------------------------|
|-11-------11-------------------------|-------------------------------------|
|----14-12----14-12-11-14-12-11----12-|-11-------11-------------------------|
|-------------------------------14----|----14-12----14-12-10-14-12-10----10-|
|-------------------------------------|-------------------------------14----|


                   ~~~~~~~~~~~
  Q      +Q   +Q   Q     Q  H    S  S  S S
|---------------------|---------------------|
|---------------------|---------------------|
|---------------------|------------------9--|
|---------------------|-/9--9----9-10-12----|
|-9b10===(9)r=(9)--9--|---------------------|
|---------------------|---------------------|


   |-----6------|  |------6-------|  |-----5-----|  |-----5-----|
   S S  S S  S  S  S  S  S  S  S  S  S  S  S  S  S  S  S  S  S  S
|-----------------------------------------------------------------|
|-----------------10----------10-12-14-12-10-------12-14-12-14-15-|
|-10-9----9-10-12----12-10-12----------------12-14----------------|
|------12---------------------------------------------------------|
|-----------------------------------------------------------------|
|-----------------------------------------------------------------|


   |------6-------|  |------6-------|  |------6-------|  |-----5-----|
   S  S  S  S  S  S  S  S  S  S  S  S  S  S  S  S  S  S  S  S  S  S  S
|-12-14-12----------12-14-12-12-14-15-17-19-17-15----15-17-19-21-19-17-|
|----------15-14-15-------------------------------19-------------------|
|----------------------------------------------------------------------|
|----------------------------------------------------------------------|
|----------------------------------------------------------------------|
|----------------------------------------------------------------------|


 Theme 6
  B5       D5      C#5   B5       A5   B5
  Gtr I
   >
   W                +H         H       H    E E +Q         +H     +H
|-19-------------|-(19)--------------|-------------------|----------------|
|----------------|-------------------|-------------------|----------------|
|----------------|-------------------|--------9-(9)b11===|=(9)----(9)r----|
|----------------|-------------------|-------------------|----------------|
|----------------|-------------------|-------------------|----------------|
|----------------|-------------------|-------------------|----------------|
|
| Gtr II
|          |-3-|         |-3-|
|  H.      E E E     q   E E E q  q    W                   +W
|----------------|-------------------|-------------------|----------------|
|----------------|-------------------|-------------------|----------------|
|----------------|-------------------|-------------------|----------------|
|--4-------7-7-7-|---6---4-4-4-4--2--|-4-----------------|-(4)------------|
|--2-------5-5-5-|---4---2-2-2-2--0--|-2-----------------|-(2)------------|
|----------------|-------------------|-------------------|----------------|


  B5         D5      C#5B5       A5   B5
   H      H          W                W           W
|------------------|----------------|----------|--------|
|------------------|----------------|----------|--------|
|------------------|----------------|----------|--------|
|-(9)\-------------|----------------|----------|--------|
|------------------|----------------|----------|--------|
|------------------|----------------|----------|--------|
|
|            |-3-|      |-3-|
|  H.        E E E   q  E E E q  q    W          +W
|------------------|----------------|----------|--------|
|------------------|----------------|----------|--------|
|------------------|----------------|----------|--------|
|--4---------7-7-7-|-6--4-4-4-4--2--|-4--------|-(4)----|
|--2---------5-5-5-|-4--2-2-2-2--0--|-2--------|-(2)----|
|------------------|----------------|----------|--------|


  B5      D5      C#5B5       A5   B5
  W               W                H    E E +Q         +H     +H
|---------------|----------------|-------------------|----------------|
|---------------|----------------|-------------------|----------------|
|---------------|----------------|--------9-(9)b11===|=(9)----(9)r----|
|---------------|----------------|-------------------|----------------|
|---------------|----------------|-------------------|----------------|
|---------------|----------------|-------------------|----------------|
|
|         |-3-|      |-3-|
| H.      E E E   q  E E E q  q    W                   +W
|---------------|----------------|-------------------|----------------|
|---------------|----------------|-------------------|----------------|
|---------------|----------------|-------------------|----------------|
|-4-------7-7-7-|-6--4-4-4-4--2--|-4-----------------|-(4)------------|
|-2-------5-5-5-|-4--2-2-2-2--0--|-2-----------------|-(2)------------|
|---------------|----------------|-------------------|----------------|


  B5         D5      C#5B5       A5   B5      A5   G5      F#5  E5      G#5
   H      H          W                W            W            W
|------------------|----------------|------------|------------|------------|
|------------------|----------------|------------|------------|------------|
|------------------|----------------|------------|------------|------------|
|-(9)\-------------|----------------|------------|------------|------------|
|------------------|----------------|------------|------------|------------|
|------------------|----------------|------------|------------|------------|
|
|            |-3-|      |-3-|
|  H.        E E E   q  E E E q  q    H.      Q    H.      Q    H.      Q
|------------------|----------------|------------|------------|------------|
|------------------|----------------|------------|------------|------------|
|------------------|----------------|------------|------------|------------|
|--4---------7-7-7-|-6--4-4-4-4--2--|-4----------|------------|------------|
|--2---------5-5-5-|-4--2-2-2-2--0--|-2-------7--|-5-------4--|-2-------6--|
|------------------|----------------|---------5--|-3-------2--|-0-------4--|


  A5
  Gtr II
  W          +W           +W           +W
|----------|------------|------------|--------|
|----------|------------|------------|--------|
|----------|------------|------------|--------|
|----------|------------|------------|--------|
|-7--------|-(7)--------|-(7)--------|-(7)----|
|-5--------|-(5)--------|-(5)--------|-(5)----|


 Guitar Solo 3
  Am
  Gtr I
   |-----5-----|  |-----5-----|  |-----5-----|   |-----5-----|
   S  S  S  S  S  S  S  S  S  S  S  S  S  S  S   S  S  S  S  S
|-18-17-18-17-15-17-15-17-15-13-15-13-15-13-12-----------------|
|----------------------------------------------/18-17-18-17-15-|
|--------------------------------------------------------------|
|--------------------------------------------------------------|
|--------------------------------------------------------------|
|--------------------------------------------------------------|


   |-----5-----|  |-----5-----|  |-----5-----|  |-----5-----|
   S  S  S  S  S  S  S  S  S  S  S  S  S  S  S  S  S  S  S  S
|-------------------------------------------------------------|
|-17-15-17-15-14----------------------------------------------|
|----------------15-14-15-14-12-------------------------------|
|-------------------------------17-15-17-15-14-15-14-15-14-12-|
|-------------------------------------------------------------|
|-------------------------------------------------------------|


   |----5-----|  |---5----|  |----5-----| |---5---|
   S  S  S  S S  S S  S S S  S  S  S  S S S S S S S   q  Q  H
|---------------------------------------------------|------------|
|---------------------------------------------------|------------|
|---------------------------------------------------|------------|
|---------------------------------------------------|------------|
|-12-10-12-10-8-10-8-10-8-7-------------------------|------------|
|---------------------------12-10-12-10-9-9-7-9-7-6-|-5----------|


   |------6-------|  |------6-------|
   S  S  S  S  S  S  S  S  S  S  S  S  E E Q
|-18-17-15------------------------------------|
|----------18-17-15-17-15---------------------|
|-------------------------18-17-15------------|
|----------------------------------17-19------|
|---------------------------------------------|
|---------------------------------------------|


   |------6-------|  |------6-------|
   S  S  S  S  S  S  S  S  S  S  S  S  E E Q
|-18-17-15------------------------------------|
|----------18-17-15-17-15---------------------|
|-------------------------18-17-15------------|
|----------------------------------17-19------|
|---------------------------------------------|
|---------------------------------------------|


   |------6-------|       |------6-------|
   S  S  S  S  S  S  E E  S  S  S  S  S  S  E E
|-18-17-15---------------18-17-15---------------|
|----------18-17-15---------------18-17-15------|
|-------------------18---------------------18---|
|-----------------------------------------------|
|-----------------------------------------------|
|-----------------------------------------------|


   |------6-------|       |------6-------|
   S  S  S  S  S  S  E E  S  S  S  S  S  S  E E
|-18-17-15---------------18-17-15---------------|
|----------18-17-15---------------18-17-15------|
|-------------------18---------------------18---|
|-----------------------------------------------|
|-----------------------------------------------|
|-----------------------------------------------|


 Theme 7
  Am      G         F       Em        Dm      C#m       Am      G
   Q   Q   Q   Q     Q   Q   Q   Q     Q   Q   Q   Q     Q   Q   Q   Q
|-17--18--15--17--|-13--15----------|-----------------|-----------------|
|-----------------|---------17--18--|-15--17--14--15--|-----------------|
|-----------------|-----------------|-----------------|-14--15--12--14--|
|-----------------|-----------------|-----------------|-----------------|
|-----------------|-----------------|-----------------|-----------------|
|-----------------|-----------------|-----------------|-----------------|


  F       Em        Dm      C#m
   Q   Q   Q   Q     Q   Q   Q   Q
|-----------------|-----------------|
|-----------------|-----------------|
|-10--12----------|-----------------|
|---------14--15--|-12--14--11--12--|
|-----------------|-----------------|
|-----------------|-----------------|


  H.=H                             Slower Q=92
  Am      G         F      Em      Am
   Q   Q   Q   Q    Q   Q  Q  Q    W          +W
|-----------------|--------------|----------|--------|
|-----------------|--------------|----------|--------|
|-----------------|--------------|----------|--------|
|-----------------|--------------|-7--------|-(7)----|
|-12--13--10--12--|-8--10--7--8--|----------|--------|
|-----------------|--------------|----------|--------|


  Faster Q=118                                               In Tempo Q=135
  Am                                                     Dm
 9/8                    4/4
  Gtr II
   Q   E E  E E E E  E   E E E E E E E E   E E E E E E E E   +W
|----------------------|-----------------|-----------------|--------|
|-10--11-8-10-6-8------|-----------------|-----------------|--------|
|-----------------9-10-|-7-9-6-7---------|-----------------|--------|
|----------------------|---------7-8-5-7-|-3-5-2-3---------|--------|
|----------------------|-----------------|---------5-7-4-5-|-(5)----|
|----------------------|-----------------|-----------------|--------|


 Outro
  D5          Eb5 D5                              Eb5
  Gtr I
  PM-----------------------------------------------------
  |-3-| |-3-| |-3-|  |--3---|   |-3-| |-3-| |-3-| |-3-|
  E E E E E E E E E  E  E   E   E E E E E E E E E E E E
|-----------------------------|-------------------------|
|-----------------------------|-------------------------|
|-----------------------------|-------------------------|
|-----------------------------|-------------------------|
|-5-5-5-5-5-5-5-5-5--5--5---5-|-5-5-5-5-5-5-5-5-5-5-5-5-|
|-----------------------------|-------------------------|
|
| Gtr II
|             |-3-|                               |-3-|
| H           Q   E +E    E     H           Q     Q   E
|-----------------------------|-------------------------|
|-----------------------------|-------------------------|
|-----------------------------|-------------------------|
|-------------8---7-(7)-------|-------------------8-----|
|-------------6---5-(5)-------|-------------------6-----|
|-----------------------------|-------------------------|


  D5          Eb5 D5                        Eb5
 -----------------------------------------|
  |-3-| |-3-| |-3-|  |--3---|   |-3-| |-3-|
  E E E E E E E E E  E  E   E   E E E E E E H
|-----------------------------|---------------------|
|-----------------------------|---------------------|
|-----------------------------|---------------------|
|-----------------------------|---------------------|
|-5-5-5-5-5-5-5-5-5--5--5---5-|-5-5-5-5-5-5---------|
|-----------------------------|---------------------|
|
|             |-3-|
| H           Q   E +E    E     H           q  Q
|-----------------------------|---------------------|
|-----------------------------|---------------------|
|-----------------------------|---------------------|
|-------------8---7-(7)-------|-------------8-------|
|-------------6---5-(5)-------|-------------6-------|
|-----------------------------|---------------------|


  D5
   |--3--|  |--3--|  |--3--|  |--3--|
   E  E  E  E  E  E  E  E  E  E  E  E
|-22-17----17-------------------------|
|-------18----18----18----18----------|
|----------------19----19-------19----|
|----------------------------19----19-|
|-------------------------------------|
|-------------------------------------|
|
|  q        Q        H
|-------------------------------------|
|-------------------------------------|
|-------------------------------------|
|--7----------------------------------|
|--5----------------------------------|
|-------------------------------------|


                             A5
   |--3--|  |--3--|
   E  E  E  E  E  E  Q  Q    W             W
|----------17--------------|-------------|-------------|
|-------------18-----------|-------------|-------------|
|-------19----------19-----|-------------|-------------|
|----19----------19--------|-------------|-------------|
|-20-----------------------|-------------|-------------|
|--------------------------|-------------|-------------|
|
|  W                         E E Q  H      E E Q  H
|--------------------------|-------------|-------------|
|--------------------------|-------------|-------------|
|--------------------------|-------------|-------------|
|--------------------------|-2-2---------|-2-2---------|
|--------------------------|-0-0---------|-0-0---------|
|--------------------------|-------------|-------------|


  Gtr II
  E E Q  H      E E Q  H      E E Q  H      E E Q  H
|-------------|-------------|-------------|-------------*|
|-------------|-------------|-------------|-------------*|
|-------------|-------------|-------------|-------------*|
|-2-2---------|-2-2---------|-2-2---------|-2-2---------*|
|-0-0---------|-0-0---------|-0-0---------|-0-0---------*|
|-------------|-------------|-------------|-------------*|



Duration Legend
---------------
W - whole; H - half; Q - quarter; E - 8th; S - 16th; T - 32nd; X - 64th; a - acciaccatura
+ - note tied to previous; . - note dotted; .. - note double dotted
Uncapitalized letters represent notes that are staccato (1/2 duration)
Irregular groupings are notated above the duration line
Duration letters will always appear directly above the note/fret number it represents the
duration for.  Duration letters with no fret number below them represent rests.  Multi-
bar rests are notated in the form Wxn, where n is the number of bars to rest for.  Low
melody durations appear below the staff

Tablature Legend
----------------
 h   - hammer-on
 p   - pull-off
 b   - bend
 pb  - pre-bend
 r   - bend release (if no number after the r, then release immediately)
 /\  - slide into or out of (from/to "nowhere")
 s   - legato slide
 S   - shift slide
 - natural harmonic
[n]  - artificial harmonic
n(n) - tapped harmonic
 ~   - vibrato
 tr  - trill
 T   - tap
 TP  - trem. picking
 PM  - palm muting
\n/  - tremolo bar dip; n = amount to dip
 \n  - tremolo bar down
 n/  - tremolo bar up
/n\  - tremolo bar inverted dip
 =   - hold bend; also acts as connecting device for hammers/pulls
 <> - volume swell (louder/softer)
 x   - on rhythm slash represents muted slash
 o   - on rhythm slash represents single note slash

Misc Legend
-----------
 |  - bar
||  - double bar
||o - repeat start
o|| - repeat end
*|  - double bar (ending)
 :  - bar (freetime)
 $  - Segno
 &  - Coda
Tempo markers -  = BPM(8/16=s8/s16), where s8 = swing 8ths, s16 = swing 16ths


            
            
Suggest correction
Creating personal tab
Creating personal tab
You can edit any tab online and save it as your Personal.

You can edit, replace or remove any tab part or add personal notes – all changes will be seen only by you.

Personal tabs can be accessed anytime from any device, even offline.
Learn more »
Give kudos to tab author, rate the tab!
1 2 3 4 5
comments
print report bad tab
guest
You may want to rate the tab now too:
select rating
Wanna post a correction for this tab? Suggest correction