Oops, an error
Loading. Please wait.

When Mountains Fall tab

version 1
version 1

Whole song

Interactive

5,012 views 3 this week
no commentswrite comment
1 2 3 4 5
x 3
add to favorites
×
Save as Personal and add changes to this tab that will be seen only by you. Learn more ›
×
You can save this tab as Personal to edit and correct it or add notes. All changes will be seen only by you. Learn more »
launch autoscroll
font size
0
reset
how to read this tab
guitar tuner
edit
Autoscroll
slow
fast
+/-
esc
set tempo
stop
Author
Hi!
this is the first song that manages to pull out, and obviously
i put the first tab
i hope you enjoy and rate
is very simple play
luck ^^



Intro

------0---1-------------1-------|--0-------------0---------------|
-----------------0-----------0--|------3--1--0-------3--1--0-----|
--2-----------2------0----------|--------------------------------|
--------------------------------|--------------------------------|
--------------------------------|--3-------------0---------------|
--1--------------3--------------|--------------------------------|



-------------------------|-----------------------------------------|
-------------0-----------|---------------------------0-------------|
--2-----2---------2---0--|--------2--------------2-----------------|
-----3-------------------|-----2-----2-----------------------------|
-------------------------|--0------------0~------------------------|
--1----------3-----------|-----------------------------------------|


Verse

----------------------------------|-----------------1---0----------|
--1--------1------0---------------|-------------------------1--3---|
--------------2--------2---0------|---2---------2------------------|
------2------------------------2--|----------3------0--------------|
--0-------------------------------|-------3------------------------|
------------------0---------------|---1----------------------------|



--0--------0----------------|---------0----------------------------|
---------------3---1--0-----|----------------0---------0-----------|
--------2----------------2--|--1-----------------0--2--------------|
-----2----------------------|--------------------------------------|
--0-------------------------|------3-----3-------------------------|
---------------0------------|--1-------------3---------------------|



----------------------------|--------------------------------------|
--1--------1--0-------------|--------1------0------1--0------------|
--------2---------2--0------|--2--------2-------0------------------|
-----2------------------2---|--------------------------------------|
--0-------------------------|-----3--------------------------------|
--------------0-------------|--1------------3----------------------|



---------------------------|---------------------------------------|
------------1---0----------|---------------------------------------|
--2~-----2----------2--0~--|---2-------2---------------------------|
---------------------------|-------2-------2-----------------------|
------3--------------------|---0---------------0~~~----------------|
--1-------------3----------|---------------------------------------|


Break

------0--1-------------1-----|---0------------0--------------------|
-----------------0--------0--|------3--1--0-------3--1--0----------|
--2----------2------0--------|-------------------------------------|
-----------------------------|-------------------------------------|
--1--------------------------|---3------------0--------------------|
-----------------3-----------|-------------------------------------|



------------------------|------------------------------------------|
-------------0----------|-----------------------0------------------|
--2------2~------2--0~--|--------2-----------2---------------------|
------3-----------------|-----2-----2------------------------------|
------------------------|--0-----------0~~~------------------------|
--1----------3----------|------------------------------------------|


Verse 2

---------------------------|--------------1---0--------------------|
--1~----1~-----0-----------|---------------------1--3--------------|
-----------2-------2--0----|--2--------2---------------------------|
-----2-------------------2-|--------3-----0------------------------|
--0------------------------|-----3---------------------------------|
---------------0-----------|--1------------------------------------|



--0--------0---------------|---------0-----------------------------|
---------------3---1--0----|--1-------------0---------0------------|
--------2------------------|--------------------0--2---------------|
-----2-------------------2-|---------------------------------------|
--0------------0-----------|------3-----3--------------------------|
---------------------------|--1-------------3----------------------|



----------------------------|--------------------------------------|
--1---------1---0-----------|--------1-----0---------0-------------|
---------2---------2--0-----|--2--------2------0--1----------------|
------2------------------2--|--------------------------------------|
--0-------------------------|-----3--------------------------------|
----------------0-----------|--1-----------3-----------------------|



------------------------|------------------------------------------|
-----------1--0---------|---------------------1--3-----------------|
--2-----2---------2--0--|--2-----2---------------------------------|
------------------------|-----2-----2------------------------------|
-----3------------------|--0-----------0~~~------------------------|
--1-----------3---------|------------------------------------------|


Chorus

--0-----3-------------------|--------0----------------0------------|
-----1---------3------1---0-|--1------------0------3---------------|
-----------0-------0--------|-----------2-------0------------------|
----------------------------|-----2--------------------------------|
--3------------2------------|--0-----------------------------------|
----------------------------|---------------0----------------------|



--1------1------------1--|--0--------0--0------0-------------------|
-----1------1--0---------|--------1--1--1------1-------------------|
-------------------0-----|-----0-----------------------------------|
-------------------------|------------------2----------------------|
-------------------------|--3--------------------------------------|
--1------------3---------|-----------------------------------------|



--1------1------------1--|--0-----0--------------------------------|
-----1------1--0---------|-----1---------------1-------------------|
-------------------0-----|-----------0---2--------0----------------|
-------------------------|------------------2----------------------|
-------------------------|--3------------0-------------------------|
--1------------3---------|-----------------------------------------|



------------------------|------------------------------------------|
-----------1--0---------|-----------------------1---3--------------|
--2-----2---------2--0~-|--2------2--------------------------------|
-----3------------------|------2-----2-----------------------------|
------------------------|--0------------0~~~-----------------------|
--1-----------3---------|------------------------------------------|


Break Solo

-------------------------|-----------------------0-----------------|
--1--0--1-----------1----|--0-----------------1--------------------|
--2--------2-----2-----2-|--0--2--0--------0-----------------------|
--------------3----------|-----------------------------------------|
--0-----------3----------|-----------3--2--------------------------|
--------------1----------|--3-----------3--------------------------|



---------1------0----------|---------3------1---0--1---------------|
-----3-------3-----1--0----|------0-----3---1---------1------------|
--2-------------2--------2-|--0------------------------------------|
--0------------------------|--0------------------------------------|
----------------0----------|---------------------------------------|
---------------------------|--3-------------1----------------------|



--------1--0-----------|--------0----------------------------------|
-----------1--3--1--0--|-----------0-------------------------------|
--0--------------------|--2------------2-------2-------------------|
--0--0-----------------|-----2-------------3-----------------------|
-----------3-----3-----|--0----------------------------------------|
--3--------------------|---------------1---------------------------|



----------------------------|--------------------------------------|
--0-------------------------|---------------0----------------------|
-----2--0~---2-------2------|------------2-------------------------|
-----------------2-------2--|--------------------------------------|
-------------0--------------|--------------------------------------|
--3-------------------------|-------0~-----------------------------|


Verse 3

--------------------------|--------------1---0---------------------|
--1-----1-----0-----------|---------------------1--3---------------|
-----------2------2--0----|--2--------2----------------------------|
-----2------------------2-|--------3-----0-------------------------|
--0-----------------------|-----3----------------------------------|
--------------0-----------|--1-------------------------------------|



--0--------0--------------|--------0-------------------------------|
--------------3--1--0-----|--1------------0---------0--------------|
--------2-----------------|-------------------0--2-----------------|
-----2-----------------2--|-----3-----3----------------------------|
--0-----------------------|----------------------------------------|
--------------0-----------|--1------------3------------------------|



--------------------------------|----------------------------------|
--1--------1--0-----------------|--------1------0------1--0--------|
--------2----------2--0---------|--2--------2-------0--------------|
-----2-------------------2------|----------------------------------|
--0-----------------------------|-----3----------------------------|
--------------0-----------------|--1------------3------------------|



--------------------------|----------------------------------------|
------------1--0----------|-----------------------1---3------------|
--2------2---------2--0~--|--2------2------------------------------|
--------------------------|------2-----2---------------------------|
-----3--------------------|--0----------~--------------------------|
--1------------3----------|----------------------------------------|



Chorus

--0-----3-------------------|--------0----------------0------------|
-----1---------3------1---0-|--1------------0------3---------------|
-----------0-------0--------|-----------2-------0------------------|
----------------------------|-----2--------------------------------|
--3------------2------------|--0-----------------------------------|
----------------------------|---------------0----------------------|



--1------1------------1--|--0--------0--0------0-------------------|
-----1------1--0---------|--------1--1--1------1-------------------|
-------------------0-----|-----0-----------------------------------|
-------------------------|------------------2----------------------|
-------------------------|--3--------------------------------------|
--1------------3---------|-----------------------------------------|



--1------1------------1--|--0-----0--------------------------------|
-----1------1--0---------|-----1---------------1-------------------|
-------------------0-----|-----------0---2--------0----------------|
-------------------------|------------------2----------------------|
-------------------------|--3------------0-------------------------|
--1------------3---------|-----------------------------------------|



------------------------|------------------------------------------|
-----------1--0---------|-----------------------1---3--------------|
--2-----2---------2--0~-|--2------2--------------------------------|
-----3------------------|------2-----2-----------------------------|
------------------------|--0------------0~~~-----------------------|
--1-----------3---------|------------------------------------------|


Break

--0-----3-----------3----|-------------0--------------0------------|
-----1--------3--------0-|----1--0--1------0------3----------------|
-----------0-----0-------|-------------2------0--------------------|
-------------------------|-----------------------------------------|
--3-----------2----------|----0------------------------------------|
-------------------------|-----------------0-----------------------|




--1------1------------1--|--0------------0--1--3--0----------------|
-----1---------0---------|---------1--3--1-----1-------------------|
------------2-----0------|------0----------------------------------|
-------------------------|-----------------------------------------|
-------------------------|--3--------------------------------------|
--1------------2---------|-----------------------------------------|




--1------1------------1--|--0------0-------------------------------|
-----1---------0---------|-----1---------------1-------------------|
------------2-----0------|------------0--2--------0----------------|
-------------------------|-----------------------------------------|
-------------------------|--3------------0-------------------------|
--1------------2---------|-----------------------------------------|



-------------------------|------------------------------------------|
-----------1--0----------|------------------------------------------|
--2-----2---------2--0~--|--2------2--------------------------------|
-----3-------------------|------2-----2-----------------------------|
-------------------------|--0-------------0~~~----------------------|
--1-----------3----------|------------------------------------------|

            
            
Suggest correction
Creating personal tab
Creating personal tab
You can edit any tab online and save it as your Personal.

You can edit, replace or remove any tab part or add personal notes – all changes will be seen only by you.

Personal tabs can be accessed anytime from any device, even offline.
Learn more »
Give kudos to tab author, rate the tab!
1 2 3 4 5
comments
print report bad tab
guest
You may want to rate the tab now too:
select rating
Wanna post a correction for this tab? Suggest correction