Oops, an error
Loading. Please wait.
We have an official Runaway Boys tab made by UG professional guitarists. Check out the tab »
×
22,306 views 45 this week
no commentswrite comment
1 2 3 4 5
x 5
add to favorites
×
Save as Personal and add changes to this tab that will be seen only by you. Learn more ›
×
You can save this tab as Personal to edit and correct it or add notes. All changes will be seen only by you. Learn more »
launch autoscroll
font size
0
reset
how to read this tab
guitar tuner
backing track
0:00
0:00
edit
Autoscroll
slow
fast
+/-
esc
set tempo
stop
Author
Difficulty
Title: Runaway Boys
Band: The Stray Cats
Album: Built for Speed

One of the more popular songs among Stray Cats fans. If I'm correct,
this was their first single in the UK. The main sections of the song
are pretty easy. The solo can be challenging if you haven't played
a lot of Setzer. He opens up the solo with that famous pull off
lick in e on the 1st string. Listen for the changes. Strums
are not exact. Lets go!!!

[Intro/Verse]

e|------------------------------------------|
B|------------------------------------------|
G|------------------------------------------|
D|------------------------------------------|
A|------------------------------------------|
E|-12-0-10-0-9-0-7-0-5-0-3-0-2-0-1-0--------|(x4)
  ***pm*****************************


[Main Riff]

  F#                                A                               Em
e|--------------------------------|------------0~-------------------0~--|
B|------2-4-2-------2-4-2---------|-----5-7-5--0~--5-7-5------8--3--0~--|
G|------3-4-3--3~---3-4-3--3--3\1-|-----6-7-6--0~--6-7-6-6----9--4--0~--|
D|-4~----------4~----------4--4\2-|-7~-------------------7--------------|
A|-4~-----------------------------|-7~----------------------------------|
E|-2~-----------------------------|-5~----------------------------------|

[Verse]

(repeat intro/verse riff)

[Pre-Chorus]

"Who could I turn to? Where could I stay?.........."
  A               C
e|--------|----------------0------------------0~---|
B|--------|----------------0---------8---3----0~~--|
G|--------|----------------0---------9---4----0~---|"RUNAWAY BOYS!"
D|-7------|-------10-------10----------------------|
A|-7------|-------10-------10----------------------|
E|-5------|-------8--------8-----------------------|

(repeat intro/verse riff)
(repeat pre-chorus)

[Post-Chorus]
"Runnin' faster. Faster all the time........"

e|---------------------------------|
B|---------------------------8--3--|
G|---------------------------9--4--|
D|-4------------7------------------|
A|-4------------7------------------|
E|-2------------5------------------|

[Solo]

e|-3p2p0-------------3p2p0--------------3p2p0-------------|
B|-------3p2p0-------------3p2p0--------------3p2p0-------|
G|-------------3p2p0--------------3p2p0--------------4p2^-|
D|--------------------------------------------------------|
A|--------------------------------------------------------|
E|--------------------------------------------------------|

e|--------------------------------------|----------------------------|
B|-0------------------------------------|----------------------------|
G|---3-0-2-3-2p0------------------------|-----------------------0-2^-|
D|---------------2-0------2-----2-----2-|-----------0-2p0---0-2------|
A|--------------------1/2---1/2---1/2---|-------0-2-------2----------|
E|--------------------------------------|-0-2-3----------------------|

e|-/12-------------12-----------------------------------------------|
B|-----15-12----12--------------------------------------------------|
G|-----------14-------14^p12--14-12---------------------------------|
D|-----------------------------------14-12-12-14-12-----------------|
A|----------------------------------------------------14-13-12-10---|
E|------------------------------------------------------------------|

e|--------------------------------------------------------------------|
B|--------------------------------------------------------------------|
G|-----14------12------11---------------------------------------------|
D|-----------------------------14-----12--11--------------------------|
A|-12------12------12------12-----12----------------------------------|
E|--------------------------------------------------------------------|

e|--------------------------------------|---------------------------------|
B|--------------------------------------|---------------------------------|
G|----2-----0---------------------------|----------------------2-0-2^-----|
D|----------------4----2---0------------|------------0-2p0---0------------|
A|-0-----0-----0-----0---0---4----------|--------0-2-------2--------------|
E|------------------------------0~-0~-0~|--0-2-3--------------------------|

Repeat song from MAIN RIFF:


That's it for another Cats song. The ending should be easy
to figure out. Just repeats some of the stuff already tabbed above.
I haven't figured out what to tab next but I'll tab something. Let
me know of any changes! Have fun!


************************************

| /   slide up
| \   slide down
| h   hammer-on
| p   pull-off
| ~   vibrato
| +   harmonic
| x   Mute note
| ^   bend

************************************

            
            
Suggest correction
Creating personal tab
Creating personal tab
You can edit any tab online and save it as your Personal.

You can edit, replace or remove any tab part or add personal notes – all changes will be seen only by you.

Personal tabs can be accessed anytime from any device, even offline.
Learn more »
comments
print report bad tab
guest
You may want to rate the tab now too:
select rating
Wanna post a correction for this tab? Suggest correction