Oops, an error
Loading. Please wait.
We have an official Stray Cat Strut tab made by UG professional guitarists. Check out the tab »
×

Stray Cat Strut tab

version 4
version 4

Whole song

Interactive

175 views 15 this week
no commentswrite comment
1 2 3 4 5
3 more votes to show rating
add to favorites
×
Save as Personal and add changes to this tab that will be seen only by you. Learn more ›
×
You can save this tab as Personal to edit and correct it or add notes. All changes will be seen only by you. Learn more »
launch autoscroll
font size
0
reset
how to read this tab
guitar tuner
backing track
0:00
0:00
edit
Autoscroll
slow
fast
+/-
esc
set tempo
stop
About this tab version
Full version of Stray Cat Strut by the Stray Cats with strum patterns, chords and solos. Was this info helpful? Yes No
[Intro]
e|--/8v-8--------------------|--------------------|
B|--/8v-8--------------------|---------8---6------|
G|--------8-10^11r10-8-10-8--|-------8---6-----8--|
D|---------------------------|-----9---------7----|
A|---------------------------|--10----------------|
E|---------------------------|--------------------|

      Cm   A#7  G#7  G7       Cm    A#7  G#7  G7
e|--x----x----x----x-----|--x-----x----x----x-----|
B|--x----x----x----x-----|--x-----x----x----x-----|
G|--x----x----x----x-----|--x-----x----x----x-----|
D|--x----x----x----x-----|--x-10\-x-8\-x-6\-x-5\--|
A|--x----x----x----x-----|--x-x---x-x--x-x--x-x---|
E|--x-8\-x-6\-x-4\-x-3\--|--x-8-\-x-6\-x-4\-x-3\--|
    D U  D U  D U  D U      D U   D U  D U  D U

      Cm     A#7   G#7   G7      Cm     A#7   G#7   G7      Cm     A#7   G#7   G7      Cm     A#7   G#7   G7
e|--x-8--x-x-6-x-x-4-x-x-3--|--x-8--x-x-6-x-x-4-x-x-3--|--x-8--x-x-6-x-x-4-x-x-3--|--x-8--x-x-6-x-x-4-x-x-3--|
B|--x-8--x-x-6-x-x-4-x-x-3--|--x-8--x-x-6-x-x-4-x-x-3--|--x-8--x-x-6-x-x-4-x-x-3--|--x-8--x-x-6-x-x-4-x-x-3--|
G|--x-8--x-x-7-x-x-5-x-x-4--|--x-8--x-x-7-x-x-5-x-x-4--|--x-8--x-x-7-x-x-5-x-x-4--|--x-8--x-x-7-x-x-5-x-x-4--|
D|--x-10-x-x-6-x-x-4-x-x-3--|--x-10-x-x-6-x-x-4-x-x-3--|--x-10-x-x-6-x-x-4-x-x-3--|--x-10-x-x-6-x-x-4-x-x-3--|
A|--x-10-x-x-8-x-x-6-x-x-5--|--x-10-x-x-8-x-x-6-x-x-5--|--x-10-x-x-8-x-x-6-x-x-5--|--x-10-x-x-8-x-x-6-x-x-5--|
E|--x-8--x-x-6-x-x-4-x-x-3--|--x-8--x-x-6-x-x-4-x-x-3--|--x-8--x-x-6-x-x-4-x-x-3--|--x-8--x-x-6-x-x-4-x-x-3--|
    D U  U D U U D U U D U     D U  U D U U D U U D U     D U  U D U U D U U D U     D U  U D U U D U U D U

[Verse 1]
    Cm      A#7   G#7   G7            Cm     A#7   G#7   G7
e|----------------------3-3-x-x--|--x-8--x-x-6-x-x-4-x-x-3-x-x--|
B|----------------------3-3-x-x--|--x-8--x-x-6-x-x-4-x-x-3-x-x--|
G|--8-.-8-.-7.-7.-5.-5.-4-4-x-x--|--x-8--x-x-7-x-x-5-x-x-4-x-x--|
D|--10.-10.-6.-6.-4.-4.-3-3-x-x--|--x-10-x-x-6-x-x-4-x-x-3-x-x--|
A|--10.-10.-8.-8.-6.-6.-5-5-x-x--|--x-10-x-x-8-x-x-6-x-x-5-x-x--|
E|--8-.-8-.-6.-6.-4.-4.-3-3-x-x--|--x-8--x-x-6-x-x-4-x-x-3-x-x--|
    D   D   D  D  D  D  U U D U     D U  U D U U D U U D U D U
    
    Cm      A#7   G#7   G7            Cm     A#7   G#7   G7
e|----------------------3-3-x-x--|--x-8--x-x-6-x-x-4-x-x-3-x-x--|
B|----------------------3-3-x-x--|--x-8--x-x-6-x-x-4-x-x-3-x-x--|
G|--8-.-8-.-7.-7.-5.-5.-4-4-x-x--|--x-8--x-x-7-x-x-5-x-x-4-x-x--|
D|--10.-10.-6.-6.-4.-4.-3-3-x-x--|--x-10-x-x-6-x-x-4-x-x-3-x-x--|
A|--10.-10.-8.-8.-6.-6.-5-5-x-x--|--x-10-x-x-8-x-x-6-x-x-5-x-x--|
E|--8-.-8-.-6.-6.-4.-4.-3-3-x-x--|--x-8--x-x-6-x-x-4-x-x-3-x-x--|
    D   D   D  D  D  D  U U D U     D U  U D U U D U U D U D U
      
    Cm      A#7   G#7   G7          Cm
e|-------------------------------|--8-\--|
B|-------------------------------|--8-\--|
G|--8-.-8-.-7.-7.-5-5-x-4.-4.-x--|--8-\--|
D|--10.-10.-6.-6.-4-4-x-3.-3.-x--|--10\--|
A|--10.-10.-8.-8.-6-6-x-5.-5.-x--|--10\--|
E|--8-.-8-.-6.-6.-4-4-x-3.-3.-x--|--8-\--|
    D   D   D  D  D D U D  D  U     D

[Verse 2]
    Fm      D#    C#    C7        Fm      D#    C#    C7        Fm      D#  C#  C7          Fm
e|--8—-8—-x-----x-----x-----x--|--8—-8—-x-----x-----x-----x--|--8—-8-—x-------------x-x--|--8-\--|
B|--9—-9—-x-8-8-x-6-6-x-5-5-x--|--9—-9—-x-8-8-x-6-6-x-5-5-x--|--9—-9-—x-8-8-6-6-5-5-x-x--|--9-\--|
G|--10-10-x-8-8-x-6-6-x-3-3-x--|--10-10-x-8-8-x-6-6-x-3-3-x--|--10-10-x-8-8-6-6-3-3-x-x--|--10\--|
D|--10-10-x-8-8-x-6-6-x-5-5-x--|--10-10-x-8-8-x-6-6-x-5-5-x--|--10-10-x-8-8-6-6-5-5-x-x--|--10\--|
A|--8—-8—-x-6-6-x-4-4-x-3-3-x--|--8—-8—-x-6-6-x-4-4-x-3-3-x--|--8—-8-—x-6-6-4-4-3-3-x-x--|--8-\--|
E|-----------------------------|-----------------------------|---------------------------|-------|
    D  D  U D D U D D U D D U     D  D  U D D U D D U D D U     D  D  U D D D U U U D U     D

[Interlude 1]     
    Cm      A#7   G#7   G7          Cm      A#7   G#7   G7
e|----------------------3-3-x-x--|----------------------3-3-x--|
B|----------------------3-3-x-x--|----------------------3-3-x--|
G|--8..-8..-7.-7.-5.-5.-4-4-x-x--|--8..-8..-7.-7.-5.-5.-4-4-x--|
D|--10.-10.-6.-6.-4.-4.-3-3-x-x--|--10.-10.-6.-6.-4.-4.-3-3-x--|
A|--10.-10.-8.-8.-6.-6.-5-5-x-x--|--10.-10.-8.-8.-6.-6.-5-5-x--|
E|--8..-8..-6.-6.-4.-4.-3-3-x-x--|--8..-8..-6.-6.-4.-4.-3-3-x--|
    D   D   D  D  D  D  U U D U     D   D   D  D  D  D  U U D 

[Solo 1]                                                                                       
e|------8----------------|-------------------|---------------------|----------------|--8—-8—-6-6-4-4-3v--|
B|------8----------------|-------------------|---------------------|--------4-7-6v--|--8—-8—-8-8-6-6-6v--|
G|--10v---10^11r10p8-----|-------------------|---------------------|------5---------|--8—-8—-7-7-5-5-4v--|
D|-------------------10--|--8-6-8-6-8-5h8p5--|----------3-5--------|--5/6-----------|--10-10-8-8-6-6-5v--|
A|-----------------------|-------------------|--2/3-5-6-----6-5-3--|----------------|--------------------|
E|-----------------------|-------------------|---------------------|----------------|--------------------|
                                                                                       D  D  D D D U D
e|---------|---------|---------|------8--------|------------|
B|---------|---------|---------|--6^8----------|--4-6-8-9---|
G|---------|---------|--5-7-8--|--------7^8-5--|--5-7-8-10--|
D|---------|--4-6-7--|---------|---------------|------------|
A|--3-5-6--|---------|---------|---------------|------------|
E|---------|---------|---------|---------------|------------|
    D U D     D U D     D U D

[Chorus 1]
e|--8-x-8-x-x-11-8-x--|--8-x-8-x-x-10-8-x--|--8-x-8-x-x-10-8-x--|--8-x-8-x-x--------|--8—-x-x-8—-8—-x--|
B|--9-x-9-x-x-9—-9-x--|--9-x-9-x-x-9—-9-x--|--8-x-8-x-x-8—-8-x--|--8-x-8-x-x-7/8\7--|--9—-x-x-9—-9—-x--|
G|--8-x-8-x-x-8—-8-x--|--8-x-8-x-x-8—-8-x--|--8-x-8-x-x-8—-8-x--|--8-x-8-x-x-7/8\7--|--10-x-x-10-10-x--|
D|--------------------|--------------------|--------------------|-------------------|------------------|
A|--------------------|--------------------|--------------------|-------------------|------------------|
E|--------------------|--------------------|--------------------|-------------------|------------------|
    U D U D U D  U D     U D U D U D  U D     U D U D U D  U D     U D U D U D         U  D U D  U  D

e|--8-x-8-x-x-8-8-x--|--10-x-10-10-10-10-10-10-10--|--11-11-11-11-11-11-11-11-11-11--|
B|--9-x-9-x-x-9-9-x--|--10-x-10-10-10-10-10-10-10--|--8—-8—-8—-8--8—-8—-8—-8—-8—-8---|
G|--8-x-8-x-x-8-8-x--|--12-x-12-12-12-12-12-12-12--|--10-10—10—10-10—10—10—10—10-10--|
D|-------------------|-----------------------------|--9—-9—-9—-9—-9—-9—-9—-9—-9—-9---|
A|-------------------|-----------------------------|---------------------------------|
E|-------------------|-----------------------------|---------------------------------|
    U D U D U D U D     U  D U  D  U  D  U  D  U      D  U  D  U  D  U  D  U  D  U

      Cm     A#7   G#7   G7        Cm     A#7   G#7   G7            Cm     A#7   G#7   G7        Cm
e|--x-8--x-x-6-x-x-4-x-x-3-x-x--|--x-8--x-x-6-x-x-4-x-x-3-x-x--|--x-8--x-x-6-x-x-4-x-x-3-x-x--|--8-\--|
B|--x-8--x-x-6-x-x-4-x-x-3-x-x--|--x-8--x-x-6-x-x-4-x-x-3-x-x--|--x-8--x-x-6-x-x-4-x-x-3-x-x--|--8-\--|
G|--x-8--x-x-7-x-x-5-x-x-4-x-x--|--x-8--x-x-7-x-x-5-x-x-4-x-x--|--x-8--x-x-7-x-x-5-x-x-4-x-x--|--8-\--|
D|--x-10-x-x-6-x-x-4-x-x-3-x-x--|--x-10-x-x-6-x-x-4-x-x-3-x-x--|--x-10-x-x-6-x-x-4-x-x-3-x-x--|--10\--|
A|--x-10-x-x-8-x-x-6-x-x-5-x-x--|--x-10-x-x-8-x-x-6-x-x-5-x-x--|--x-10-x-x-8-x-x-6-x-x-5-x-x--|--10\--|
E|--x-8--x-x-6-x-x-4-x-x-3-x-x--|--x-8--x-x-6-x-x-4-x-x-3-x-x--|--x-8--x-x-6-x-x-4-x-x-3-x-x--|--8-\--|
    D U  U D U U D U U D U D U     D U  U D U U D U U D U D U     D U  U D U U D U U D U D U     D

[Interlude 2]      
    Cm      A#7   G#7     G7          Cm      A#7   G#7     G7
e|----------------------x-------x--|----------------------x-------x--|
B|----------------------x-------x--|----------------------x-------x--|
G|--8-.-8-.-7.-7.-5.-5.-x-4.-4.-x--|--8-.-8-.-7.-7.-5.-5.-x-4.-4.-x--|
D|--10.-10.-6.-6.-4.-4.-x-3.-3.-x--|--10.-10.-6.-6.-4.-4.-x-3.-3.-x--|
A|--10.-10.-8.-8.-6.-6.-x-5.-5.-x--|--10.-10.-8.-8.-6.-6.-x-5.-5.-x--|
E|--8-.-8-.-6.-6.-4.-4.-x-3.-3.-x--|--8-.-8-.-6.-6.-4.-4.-x-3.-3.-x--|
    D   D   D  D  D  D  U D  D  U     D   D   D  D  D  D  U D  D  U

     Cm   G#7 D#7     Cm   G#7 D#7     Cm   G#7 D#7     Cm   G#7
e|--%8-v-%4v------|--%8-v-%4v------|--%8-v-%4v------|--%8-v-%4v--|
B|--%8-v-%4v-%4v--|--%8-v-%4v-%4v--|--%8-v-%4v-%4v--|--%8-v-%4v--|
G|--%8-v-%5v-%6v--|--%8-v-%5v-%6v--|--%8-v-%5v-%6v--|--%8-v-%5v--|
D|--%10v-%4v-%5v--|--%10v-%4v-%5v--|--%10v-%4v-%5v--|--%10v-%4v--|
A|--%10v-%6v-%6v--|--%10v-%6v-%6v--|--%10v-%6v-%6v--|--%10v-%6v--|
E|--%8-v-%4v------|--%8-v-%4v------|--%8-v-%4v------|--%8-v-%4v--|
     D    D   D       D    D   D       D    D   D       D    D 

[Solo 2]
e|--7/8-v-11v-10v-8-v--|--8-------------|----------|----------|--8-v-11v-10v--|--8-v-11v-10v--|
B|--7/8-v-10v-9-v-8-v--|--8-------------|------4v--|------3v--|--8-v-10v-9-v--|--8-v-10v-9-v--|
G|--7/8-v-11v-10v-8-v--|----10b11r10p8--|----5-----|----4-----|--8-v-11v-10v--|--8-v-11v-10v--|
D|--9/10v-10v-9-v-10v--|----------------|--6-------|--5-------|--10v-10v-9-v--|--10v-10v-9-v--|
A|---------------------|----------------|----------|----------|---------------|---------------|
E|---------------------|----------------|----------|----------|---------------|---------------|
    D     D   D   D       U D              D D D      D D D      D   D   D       D   D   D

e|--8-11-10-8----------|--------8----------------------|-----------------|
B|------------11-10-8--|-------------------------------|-----------------|
G|---------------------|--10b11---10b11r10p8-10vp8-----|--%8—-8----------|
D|---------------------|---------------------------10--|--%9----10-8-----|
A|---------------------|-------------------------------|--%10--------10--|
E|---------------------|-------------------------------|-----------------|

[Chorus 2]
e|--8-x-8-x-x-11-8-x--|--8-x-8-x-x-10-8-x--|--8-x-8-x-x-10-8-x--|--8-x-8-x-x--------|--8—-x-x-8—-8—-x--|
B|--9-x-9-x-x-9—-9-x--|--9-x-9-x-x-9—-9-x--|--8-x-8-x-x-8—-8-x--|--8-x-8-x-x-7/8\7--|--9—-x-x-9—-9—-x--|
G|--8-x-8-x-x-8—-8-x--|--8-x-8-x-x-8—-8-x--|--8-x-8-x-x-8—-8-x--|--8-x-8-x-x-7/8\7--|--10-x-x-10-10-x--|
D|--------------------|--------------------|--------------------|-------------------|------------------|
A|--------------------|--------------------|--------------------|-------------------|------------------|
E|--------------------|--------------------|--------------------|-------------------|------------------|
    U D U D U D  U D     U D U D U D  U D     U D U D U D  U D     U D U D U D         U  D U D  U  D

e|--8-x-8-x-x-8-8-x--|--10-x-10-10-10-10-10-10-10--|--11-11-11-11-11-11-11-11-11-11--|
B|--9-x-9-x-x-9-9-x--|--10-x-10-10-10-10-10-10-10--|--8—-8—-8—-8--8—-8—-8—-8—-8—-8---|
G|--8-x-8-x-x-8-8-x--|--12-x-12-12-12-12-12-12-12--|--10-10—10—10-10—10—10—10—10-10--|
D|-------------------|-----------------------------|--9—-9—-9—-9—-9—-9—-9—-9—-9—-9---|
A|-------------------|-----------------------------|---------------------------------|
E|-------------------|-----------------------------|---------------------------------|
    U D U D U D U D     U  D U  D  U  D  U  D  U      D  U  D  U  D  U  D  U  D  U

      Cm     A#7   G#7   G7        Cm     A#7   G#7   G7            Cm     A#7   G#7   G7        Cm
e|--x-8--x-x-6-x-x-4-x-x-3-x-x--|--x-8--x-x-6-x-x-4-x-x-3-x-x--|--x-8--x-x-6-x-x-4-x-x-3-x-x--|--8-\--|
B|--x-8--x-x-6-x-x-4-x-x-3-x-x--|--x-8--x-x-6-x-x-4-x-x-3-x-x--|--x-8--x-x-6-x-x-4-x-x-3-x-x--|--8-\--|
G|--x-8--x-x-7-x-x-5-x-x-4-x-x--|--x-8--x-x-7-x-x-5-x-x-4-x-x--|--x-8--x-x-7-x-x-5-x-x-4-x-x--|--8-\--|
D|--x-10-x-x-6-x-x-4-x-x-3-x-x--|--x-10-x-x-6-x-x-4-x-x-3-x-x--|--x-10-x-x-6-x-x-4-x-x-3-x-x--|--10\--|
A|--x-10-x-x-8-x-x-6-x-x-5-x-x--|--x-10-x-x-8-x-x-6-x-x-5-x-x--|--x-10-x-x-8-x-x-6-x-x-5-x-x--|--10\--|
E|--x-8--x-x-6-x-x-4-x-x-3-x-x--|--x-8--x-x-6-x-x-4-x-x-3-x-x--|--x-8--x-x-6-x-x-4-x-x-3-x-x--|--8-\--|
    D U  U D U U D U U D U D U     D U  U D U U D U U D U D U     D U  U D U U D U U D U D U     D

[Outro]
e|--8-----------------------|-------------|
B|--8-----------------------|-------------|
G|----10b11r10-8-10-8-------|-------------|
D|--------------------10-8--|-----8-9-10--|
A|--------------------------|--10---------|
E|--------------------------|-------------|

    Cadd9                                         Cadd9
e|--10-10-10-10-10-10-10-10-10-10-10-10-10-10--|—-10--|
B|--8—-8—-8—-8—-8—-8—-8—-8—-8—-8—-8—-8—-8—-8---|--8---|
G|--8—-8—-8--8—-8—-8—-8—-8—-8—-8—-8—-8—-8—-8---|--8—--|
D|--10-10-10-10-10-10-10-10-10-10-10-10-10-10--|—-10--|
A|---------------------------------------------|------|
E|---------------------------------------------|------|
    D  U  D  U  D  U  D  U  D  U  D  U  D  U      D

************************************

| D Down Stroke
| U Up Stroke
| / Slide Up
| \ Slide Down
| v Vibrato
| ^ Bend
| r Release
| x Dead Note
| \ Slide Down
| . Staccato
| % Appregio/Sweep

************************************

            
            
Suggest correction
Creating personal tab
Creating personal tab
You can edit any tab online and save it as your Personal.

You can edit, replace or remove any tab part or add personal notes – all changes will be seen only by you.

Personal tabs can be accessed anytime from any device, even offline.
Learn more »
Give kudos to tab author, rate the tab!
1 2 3 4 5
comments
print report bad tab
guest
You may want to rate the tab now too:
select rating
Wanna post a correction for this tab? Suggest correction