Oops, an error
Loading. Please wait.

Mistakes We Knew We Were Making tab

1,629 views 1 this week
2 commentsread comments
1 2 3 4 5
3 more votes to show rating
add to favorites
×
Save as Personal and add changes to this tab that will be seen only by you. Learn more ›
×
You can save this tab as Personal to edit and correct it or add notes. All changes will be seen only by you. Learn more »
launch autoscroll
font size
0
reset
how to read this tab
guitar tuner
edit
Autoscroll
slow
fast
+/-
esc
set tempo
stop
Artist: Straylight Run
Song: Mistakes We Knew We We're Making
Album: Straylight Run (2004)
Tabbed By: Matthew Florio; myspace.com/mattflorio2
Email: Shempashland@yahoo.com

Feel free to contact me if you have any questions or comments!
**12/01/13 **
UPDATE: I felt the needed to tab how I play the bridge and chorus now.
I flows well. I will label it under 'Revised'.

Tuning: Standard

Intro/Verse
*here are a two ways to play this:
  Bm    A
e--2----0------|
b--3----0------|
g--2----6------|
d--4----7------|
a--2----0------|
e--------------|
or
e--0----0------|
b--0----0------|
g--6----6------|
d--7----7------|
a--5----0------|
e--7-----------|
*John plays it this way

PreChorus
    G    A
e---3----0-----|
b---3----0-----|
g---0----2-----|
d---0----2-----|
a---x----0-----|
e---3----------|

*this is the guitar fill and piano part during prechorus
e--------------------|
b------------2-2-2-2-|
g---3-3-3-3-2-2-2-2--|
d--4-4-4-4-----------|
a--------------------|
e--------------------|

Chorus
e--0--0--0--0--0--0--|
b--3--2--3--3--3--2--|
g--2--2--2--0--2--2--|
d--4--2--0--0--0--2--|
a-(5)-0-----------0--|
e--------------------|

REVISED
e--0--0--0--0--0-0-0--|
b--3--2--3--3--3-3/2--|
g--2--2--2--0--2-2-2--|
d--0--2--0--0--0-2-2--|
a--x--0-----x----0-0--|
e--3--------2---------|

Bridge
e--3--2--0--0----|
b--3--2--2--3----|
g--0--2--2--4----|
d--0--4--2--4----|
a--x--4--0--2----|
e--3--2----------|


REVISED
e--0--0--0--0--------|
b--3--3--5--7--------|
g--2--2--6--7--------|
d--0--0--0--0--------|
a--x--x--x--x--------|
e--3--2--5--7--------|

            
            
Suggest correction
Creating personal tab
Creating personal tab
You can edit any tab online and save it as your Personal.

You can edit, replace or remove any tab part or add personal notes – all changes will be seen only by you.

Personal tabs can be accessed anytime from any device, even offline.
Learn more »
Give kudos to tab author, rate the tab!
1 2 3 4 5
comments
print report bad tab
2 comments total.
0 reply
xguzzardix10 271 Feb 26, 2009 02:31 PM

good tab. http://www.youtube.com/watch?v=xRkI_fbP1W4

is this the video you got ur tab from?

0 reply
mattplayscheap 2,432 Dec 25, 2010 11:40 AM

Actually no but it shows it. I've seen him play it before

guest
You may want to rate the tab now too:
select rating
Wanna post a correction for this tab? Suggest correction