Oops, an error
Loading. Please wait.

100 Little Curses tab

version 3
version 3

Whole song

Interactive

5,783 views 3 this week
2 commentsread comments
1 2 3 4 5
x 6
add to favorites
×
Save as Personal and add changes to this tab that will be seen only by you. Learn more ›
×
You can save this tab as Personal to edit and correct it or add notes. All changes will be seen only by you. Learn more »
launch autoscroll
font size
0
reset
how to read this tab
guitar tuner
edit
Autoscroll
slow
fast
+/-
esc
set tempo
stop
Author
Street Sweeper Social Club - 100 Little Curses
--------------------------------------------------

Tuning is standard

--

Intro:


On the album version it's played like this:

   N.H. . . . . . . . . . . . . . . . . . . . . .
e|------------------------------------------------|
B|------------------------------------------------|
G|------------------------------------------------|
D|-------7-----------5-----------7----------12----| x4
A|----7-----7-----5-----5-----7-----7----12----12-|
E|-7-----------5-----------7----------12----------|


Live it's played like this:

   N.H. . . . . . . . . . . . . . . . . . . . . .
e|------------------------------------------------|
B|------------------------------------------------|
G|------------------------------------------------|
D|-------12----------7-----------5-----------7----| x4
A|----12----12----7-----7-----5-----5-----7-----7-|
E|-12----------7-----------5-----------7----------|


The G and D chords can be played as power chords as well, but this is how Tom plays it:

   Em       G        D/A      Em
e|--------|--------|--------|--------|
B|-0------|-3------|-3------|-0------|
G|-0------|-0------|-2------|-0------|
D|-2------|-0------|-0------|-2------|
A|-2------|-2------|-0------|-2------|
E|-0------|-3------|--------|-0------|

                              P.M. . . . . . .
e|--------|--------|--------|------------------|
B|-0------|-3------|-3------|------------------|
G|-0------|-0------|-2------|------------------|
D|-2------|-0------|-0------|------------------|
A|-2------|-2------|-0------|-7777777777777777-|
E|-0------|-3------|--------|-0000000000000000-|

Verse:

                              x3
E|------------------------------|----------------------------|
B|------------------------------|----------------------------|
G|------------------------------|----------------------------|
D|-------------5h7--------------|-------------5h7------------|
A|-7-----5h7--------5h7------5--|-7-----5h7-7-----5h7-----5--|
E|----0------------------5h7----|----0----------------5h7----|

                              x5
E|------------------------------|----------------------------|
B|------------------------------|----------------------------|
G|------------------------------|----------------------------|
D|-------------5h7--------------|-------------5h7------------|
A|-7-----5h7--------5h7------5--|-7-----5h7-7-----5h7-----5--|
E|----0------------------5h7----|----0----------------5h7----|

                              x2
E|------------------------------|
B|------------------------------|
G|------------------------------|
D|-------------5h7--------------|
A|-7-----5h7--------5h7------5--|
E|----0------------------5h7----|

Chorus:

e|--------|--------|--------|--------|
B|-0------|-3------|-3------|-0------|
G|-0------|-0------|-2------|-0------|
D|-2------|-0------|-0------|-2------| x2
A|-2------|-2------|-0------|-2------|
E|-0------|-3------|--------|-0------|

Verse 2:

                              x3
E|------------------------------|----------------------------|
B|------------------------------|----------------------------|
G|------------------------------|----------------------------|
D|-------------5h7--------------|-------------5h7------------|
A|-7-----5h7--------5h7------5--|-7-----5h7-7-----5h7-----5--|
E|----0------------------5h7----|----0----------------5h7----|

                              x8
E|------------------------------|
B|------------------------------|
G|------------------------------|
D|-------------5h7--------------|
A|-7-----5h7--------5h7------5--|
E|----0------------------5h7----|

Chorus:

e|--------|--------|--------|--------|
B|-0------|-3------|-3------|-0------|
G|-0------|-0------|-2------|-0------|
D|-2------|-0------|-0------|-2------| x3
A|-2------|-2------|-0------|-2------|
E|-0------|-3------|--------|-0------|

Solo:

I'm still not completely sure about this, but i think this is pretty close now:

This part is played with a toggle switch:

e|--------------------------------------------------------|
B|--------------------------------------------------------|
G|---------------12--12-12~--------------------14b-12~----|
D|-14~---12--14--------------14----12--14--12-------------|
A|--------------------------------------------------------|
E|--------------------------------------------------------|

e|--------------------------------------------------------------|
B|---------------------------15-14-15--14--15--14--15--14--15\--|
G|---------------12--12-12~-------------------------------------|
D|-14~---12--14-------------------------------------------------|
A|--------------------------------------------------------------|
E|--------------------------------------------------------------|


This is where you take the pick:

e|-0-0-12-12-0-10---0-0-9-9-0-7\--0-0-12-12-0-10--12-0-0-9-9-0-15\--|
B|------------------------------------------------------------------|
G|------------------------------------------------------------------|
D|------------------------------------------------------------------|
A|------------------------------------------------------------------|
E|------------------------------------------------------------------|

e|-0-0-12-12-0-10--12-0-0-9-9-0-7\--0-0-9-0-0-10-0-0-12-0-0-15-0-0-17\--|
B|----------------------------------------------------------------------|
G|----------------------------------------------------------------------|
D|----------------------------------------------------------------------|
A|----------------------------------------------------------------------|
E|----------------------------------------------------------------------|

   TP  TP  TP  TP  TP  TP  TP  TP    TP  TP  TP  TP  TP  TP  TP  TP
e|---------------------------------|---------------------------------|
B|-12----------12----------12------|-15----------15----------15------|
G|-----12----------12----------12--|-----16----------16----------16--|
D|---------14----------14----------|---------17----------17----------|
A|---------------------------------|---------------------------------|
E|---------------------------------|---------------------------------|

   TP  TP  TP  TP  TP  TP  TP  TP
e|---------------------------------|
B|-10----------10----------10------|
G|-----11----------11----------11--|
D|---------12----------12----------|
A|---------------------------------|
E|---------------------------------|

And that last little scale run is probably something like in the ver 1, however its 
played live like that

E|-17-15-14----------------------------------------------------------|
B|----------17-15-13-------------------------------------------------|
G|-------------------16-14-12----------12----------------------------|
D|----------------------------16-14-12----16-14-12-------------------|
A|-------------------------------------------------15-14-12----------|
E|----------------------------------------------------------15-14-12-|

Chorus:

e|--------|--------|--------|--------|
B|-0------|-3------|-3------|-0------|
G|-0------|-0------|-2------|-0------|
D|-2------|-0------|-0------|-2------| x3
A|-2------|-2------|-0------|-2------|
E|-0------|-3------|--------|-0------|

            
            
Suggest correction
Creating personal tab
Creating personal tab
You can edit any tab online and save it as your Personal.

You can edit, replace or remove any tab part or add personal notes – all changes will be seen only by you.

Personal tabs can be accessed anytime from any device, even offline.
Learn more »
comments
print report bad tab
2 comments total.
0 reply
Anoshmo 10 Sep 06, 2009 07:55 AM

i played this through and it didnt sound wrong. good job

0 reply
Anoshmo 10 Sep 19, 2009 01:07 PM

great job, sounds 99.99% perfect.

i wish i had a killswitch though =(

guest
You may want to rate the tab now too:
select rating
Wanna post a correction for this tab? Suggest correction