Oops, an error
Loading. Please wait.

Nobody Moves Til We Say Go bass

680 views 3 this week
no commentswrite comment
1 2 3 4 5
1 last vote to show rating
add to favorites
×
Save as Personal and add changes to this tab that will be seen only by you. Learn more ›
×
You can save this tab as Personal to edit and correct it or add notes. All changes will be seen only by you. Learn more »
launch autoscroll
font size
0
reset
guitar tuner
edit
Autoscroll
slow
fast
+/-
esc
set tempo
stop
============================
NOBODY MOVES (TIL WE SAY GO) - Street Sweeper Social Club
============================

Tabber: Unicorn Death
Email: Albinojellyfish1@gmail.com

Tuning: Drop B

So the bass basically plays a simplified version of Tom's lead part.
All in all, it really only plays two riffs.

INTRO:
G|--------------------------------------|
D|--------------------------------------|
A|--------------------------------------|
B|---15-15-14-14-12-12-10-12--0-0-0-0---|
                              |-SLAP-|

VERSE:
G|--------------------------------------|
D|--------------------------------------|
A|--------------------------------------|
B|---12-12-10-3-0-5-0-3--0-0------------|

CHORUS:
G|--------------------------------------|
D|--------------------------------------|
A|--------------------------------------|
B|---15-15-14-14-12-12-10-12--0-0-0-0---|
                              |-SLAP-|

VERSE:
G|--------------------------------------|
D|--------------------------------------|
A|--------------------------------------|
B|---12-12-10-3-0-5-0-3--0-0------------|

CHORUS:
G|--------------------------------------|
D|--------------------------------------|
A|--------------------------------------|
B|---15-15-14-14-12-12-10-12--0-0-0-0---|
                              |-SLAP-|

SOLO:
G|--------------------------------------|
D|--------------------------------------|
A|--------------------------------------|
B|---15-15-14-14-12-12-10-12--0-0-0-0---|
                              |-SLAP-|

CHORUS:
G|--------------------------------------|
D|--------------------------------------|
A|--------------------------------------|
B|---15-15-14-14-12-12-10-12--0-0-0-0---|
                              |-SLAP-|

OUTRO:
G|--------------------------------------|
D|--------------------------------------|
A|--------------------------------------|
B|---12-12-10-3-0-5-0-3--0-0------------|


I'm not sure whether he actually slaps those, or not he just plucks the string a bit 
than usual. Its your choice, because drop B is so low that it sounds the same. Anyways, it 
Tom didn't get real creative with his bass riff. Too bad Tim Commerford isn't in the Social Club.

            
            
Suggest correction
Creating personal tab
Creating personal tab
You can edit any tab online and save it as your Personal.

You can edit, replace or remove any tab part or add personal notes – all changes will be seen only by you.

Personal tabs can be accessed anytime from any device, even offline.
Learn more »
Give kudos to tab author, rate the tab!
1 2 3 4 5
comments
print report bad tab
guest
You may want to rate the tab now too:
select rating
Wanna post a correction for this tab? Suggest correction