Oops, an error
Loading. Please wait.

Promenade solo tab

version 2
version 2

Solo

Whole song

Interactive

1,996 views 1 this week
no commentswrite comment
1 2 3 4 5
x 5
add to favorites
×
Save as Personal and add changes to this tab that will be seen only by you. Learn more ›
×
You can save this tab as Personal to edit and correct it or add notes. All changes will be seen only by you. Learn more »
launch autoscroll
font size
0
reset
how to read this tab
guitar tuner
edit
Autoscroll
slow
fast
+/-
esc
set tempo
stop
Author
Difficulty
Artist: Street Sweeper Social Club
Song: Promenade (Re-Edited version, "Radio-Remix")
Album: Single Edit
tabbed by: necriononguitar
e-mail (No freakin SPAM!): tim.rathgen@gmx.de

REAL FANS SUPPORT BANDS BY PURCHASING THEIR CDS!!!

. = Palm-Muted
~ = hold note
^ = vibrate
p = pull off
h = hammer on
/ = slide up
\ = slide down
* = harmonic
b = bend


Tuning: Standard


I use the following Guitar, Amp and Effects:

- Gibson Explorer (not necessary, ofc)
  - Use Bass Pick-Up
- Vox Valvetronix (Amp-Setting: UK 80's or US Highgain)
  - Auto Wah
  - Delay
  - Chorus

Wanna see me covering it? Here you go:
http://www.youtube.com/watch?v=FNTQPQktaVE


UPDATE 31/10/2010
Edited the last part



Solo Starts at:  1:32
    E                           C             [b1/2r14]
E----------------------------------------------------------------|
B---15~-----15~-----15~-(15)-------------------------------------|
G---14b16~--14b16~--14b16r14----12^------12----12(b)^------------|
D-------------------------------------14----14--------14-12------|
A----------------------------------------------------------------|
E----------------------------------------------------------------|

                                  hit the note here: *    [] = bend before picked
    G                              D
E-----------------------------------------------------------------------------|
B---15~-----15~-----15~-(15)--------------------------------------------------|
G---14b16~--14b16~--14b16r14-------12^-------12-[14b]16--12^------------------|
D--------------------------------14--------14------------------14(p)12-14-----|
A-----------------------------------------------------------------------------|
E-----------------------------------------------------------------------------|

b (without a number following) = bend a little to create a good sound for the note

    E   [ pull-off between 14+12 if u want to ]
E------------------------------------------------------|
B------------------------------------------------------|
G---12b-------------------12b--------------------------|
D--------14-12-14-12-14--------14-12-14-12-14----------|
A------------------------------------------------------|
E------------------------------------------------------|

    C   [  pull-off between 14+12 if u want to  ]
E------------------------------------------------------|
B------------------------------------------------------|
G---12b-------------------12-12b-----------------------|
D--------14-12-14-12-14----------14-12-14-12-14--------|
A------------------------------------------------------|
E------------------------------------------------------|

    G                                                     D
E---15--------15--------------------15--------15----------------------|
B-----------------------15-----------------------------15-------------|
G-----12-12-----12-12-----12-12-------12-12-----12-12----12-12--------|
D---------------------------------------------------------------------|
A---------------------------------------------------------------------|
E---------------------------------------------------------------------|

                            [slow bend]
E---15---------------------------------------------------|
B--------------15------------17b20r17^--(17)\------------|
G------12-12------12-12----------------------------------|
D--------------------------------------------------------|
A--------------------------------------------------------|
E--------------------------------------------------------|

If you spot any mistake, please contact me via comment, pm or email.

Also, please rate and and comment if you liked the tab!

Cheers...

            
            
Suggest correction
Creating personal tab
Creating personal tab
You can edit any tab online and save it as your Personal.

You can edit, replace or remove any tab part or add personal notes – all changes will be seen only by you.

Personal tabs can be accessed anytime from any device, even offline.
Learn more »
comments
print report bad tab
guest
You may want to rate the tab now too:
select rating
Wanna post a correction for this tab? Suggest correction