Oops, an error
Loading. Please wait.

Somewhere In The World Its Midnight tab

version 2
version 2

Whole song

1,443 views 1 this week
2 commentsread comments
1 2 3 4 5
1 last vote to show rating
add to favorites
×
Save as Personal and add changes to this tab that will be seen only by you. Learn more ›
×
You can save this tab as Personal to edit and correct it or add notes. All changes will be seen only by you. Learn more »
launch autoscroll
font size
0
reset
how to read this tab
guitar tuner
edit
Autoscroll
slow
fast
+/-
esc
set tempo
stop
SOMEWHERE IN THE WORLD ITS MIDNIGHT

tuning is in drop d

Intro:

e|------|
B|------|
G|------|
D|------|
A|-12\--|
D|-12\--|

e|------------------------|----------------------------|
B|------------------------|----------------------------|
G|------------------------|----------------------------|
D|------------------------|----------------------------| 2x
A|-------------------0-3--|----------------3h5-3h5-3h5-|
D|-5-3-0-3--5-3-0--0------|-5-3-0-3--5-3-0-------------|


Chorus:

e|------------------------|----------------------------|
B|------------------------|----------------------------|
G|------------------------|----------------------------|
D|------------------------|----------------------------| 4x
A|-------------------0-3--|----------------3h5-3h5-3h5-|
D|-5-3-0-3--5-3-0--0------|-5-3-0-3--5-3-0-------------| 


Verse:

e|----------------------------|-------------------------|
B|----------------------------|-------------------------|
G|----------------------------|-------------------------|
D|----3-----------------5-----|----3--------------------| 6x
A|------5-0-3-0-3--0-3-----3--|------5-0-3-0-3--0-3--5--|
D|-0--------------------------|-0-----------------------|


Chorus:

e|------------------------|----------------------------|
B|------------------------|----------------------------|
G|------------------------|----------------------------|
D|------------------------|----------------------------| 4x
A|-------------------0-3--|----------------3h5-3h5-3h5-|
D|-5-3-0-3--5-3-0--0------|-5-3-0-3--5-3-0-------------| 


Break:

e|---------------------------------|
B|---------------------------------|
G|---------------------------------|
D|---------------------------------| 4x
A|-0-0-x-x-x-x-0-0-x-x-x-x-x-x-x-x-|
D|-0-0-x-x-x-x-0-0-x-x-x-x-x-x-x-x-|


Verse:

e|----------------------------|-------------------------|
B|----------------------------|-------------------------|
G|----------------------------|-------------------------|
D|----3-----------------5-----|----3--------------------| 6x
A|------5-0-3-0-3--0-3-----3--|------5-0-3-0-3--0-3--5--|
D|-0--------------------------|-0-----------------------|


Chorus:

e|------------------------|----------------------------|
B|------------------------|----------------------------|
G|------------------------|----------------------------|
D|------------------------|----------------------------| 4x
A|-------------------0-3--|----------------3h5-3h5-3h5-|
D|-5-3-0-3--5-3-0--0------|-5-3-0-3--5-3-0-------------| 


Solo:

in the live version Tom just messes around with his G string tuning, 
turning it half a step up and down while tremolo picking the string. 
Check it out on youtube or somewhere else to get it!

I have no idea what he does on the studio version though:D

at the same time guitar 2 plays this:

e|---------------------------------|
B|---------------------------------|
G|---------------------------------|
D|---------------------------------| 11x
A|-0-0-x-x-x-x-0-0-x-x-x-x-x-x-x-x-|
D|-0-0-x-x-x-x-0-0-x-x-x-x-x-x-x-x-|

e|---------------------------------|
B|---------------------------------|
G|---------------------------------|
D|---------------------------------|
A|-0-0-x-x-x-x-0-0-----------------|
D|-0-0-x-x-x-x-0-0-----------------|

            
            
Suggest correction
Creating personal tab
Creating personal tab
You can edit any tab online and save it as your Personal.

You can edit, replace or remove any tab part or add personal notes – all changes will be seen only by you.

Personal tabs can be accessed anytime from any device, even offline.
Learn more »
Give kudos to tab author, rate the tab!
1 2 3 4 5
comments
print report bad tab
2 comments total.
+1 reply
Anoshmo 10 Jan 14, 2010 03:51 PM

very nice tab, there is just one minor mistake:

verse should be:

e|----------------------------|-------------------------|
B|----------------------------|-------------------------|
G|----------------------------|-------------------------|
D|----3-----------------3-----|----3--------------------| 6x
A|------5-0-3-0-3--0-3-----5--|------5-0-3-0-3--0-3--5--|
D|-0--------------------------|-0-----------------------|

other than that it looks good

0 reply
Cobalt Blue 96 Jan 30, 2010 10:05 PM

^^^was about to mention the exact same correction.

guest
You may want to rate the tab now too:
select rating
Wanna post a correction for this tab? Suggest correction