Oops, an error
Loading. Please wait.

The Oath bass

version 1
version 1

Whole song

Interactive

715 views 1 this week
1 commentread comment
1 2 3 4 5
3 more votes to show rating
add to favorites
×
Save as Personal and add changes to this tab that will be seen only by you. Learn more ›
×
You can save this tab as Personal to edit and correct it or add notes. All changes will be seen only by you. Learn more »
launch autoscroll
font size
0
reset
guitar tuner
edit
Autoscroll
slow
fast
+/-
esc
set tempo
stop
THE OATH - Street Sweeper Social Club

TABBER: Unicorn Death
EMAIL: Albinojellyfish1@Gmail.com

Definitely the best song on the album. Standard tuning.

Bass comes in at 0:44.
INTRO:
G|-------|-------|----------------------|
D|-------|-------|----------------------|
A|-------|-------|--------5h7-------5---|
E|---0---|---0---|---5h7-------5h7------|


VERSE:
G|----------------------------|----------------------------------|
D|------------------------5---|------------------------5---------|
A|------5--7--5--7--5--7------|------5--7--5--7--5--7------------|
E|---0------------------------|---0------------------------------|

G|----------------------------|----------------------------------|
D|------------------------5---|----------------------------------|
A|------5--7--5--7--5--7------|------5--7--5-------5h7-------5---|
E|---0------------------------|---0-----------5h7-------5h7------|


CHORUS:
G|--------------------------------------------------------------|
D|----------------------------------------------------------5---|
A|---7--7-7--7--5--5-5---------------------------------5h7------|
E|----------------------5--5--5-5--5--3--3-3--0---5h7-----------|

G|--------------------------------------------------------------|
D|--------------------------------------------------------------|
A|---7--7-7--7--5--5-5------------------------------------------|
E|----------------------5--5--5-5--5--3--3-3--0---15/0----------|
                                                  Hold the 15
                                                  for a moment
                                                  before sliding.

VERSE:
G|----------------------------|----------------------------------|
D|------------------------5---|------------------------5---------|
A|------5--7--5--7--5--7------|------5--7--5--7--5--7------------|
E|---0------------------------|---0------------------------------|

G|----------------------------|----------------------------------|
D|------------------------5---|----------------------------------|
A|------5--7--5--7--5--7------|------5--7--5-------5h7-------5---|
E|---0------------------------|---0-----------5h7-------5h7------|


CHORUS:
G|--------------------------------------------------------------|
D|----------------------------------------------------------5---|
A|---7--7-7--7--5--5-5---------------------------------5h7------|
E|----------------------5--5--5-5--5--3--3-3--0---5h7-----------|

G|--------------------------------------------------------------|
D|--------------------------------------------------------------|
A|---7--7-7--7--5--5-5------------------------------------------|
E|----------------------5--5--5-5--5--3--3-3--0---15/0----------|
                                                  Hold the 15
                                                  for a moment
                                                  before sliding.

INTERLUDE:
Bass doesn't play until 3:14.
G|-------|
D|-------|
A|-------|
E|---0---|


CHORUS:
G|--------------------------------------------------------------|
D|----------------------------------------------------------5---|
A|---7--7-7--7--5--5-5---------------------------------5h7------|
E|----------------------5--5--5-5--5--3--3-3--0---5h7-----------|

G|--------------------------------------------------------------|
D|--------------------------------------------------------------|
A|---7--7-7--7--5--5-5------------------------------------------|
E|----------------------5--5--5-5--5--3--3-3--0---15/0----------|
                                                  Hold the 15
                                                  for a moment
                                                  before sliding.

Repeat the chorus and you're done. Enjoy. 


|   GLOSSARY   |
|h - hammer-on |
|/ - slide     |

            
            
Suggest correction
Creating personal tab
Creating personal tab
You can edit any tab online and save it as your Personal.

You can edit, replace or remove any tab part or add personal notes – all changes will be seen only by you.

Personal tabs can be accessed anytime from any device, even offline.
Learn more »
Give kudos to tab author, rate the tab!
1 2 3 4 5
comments
print report bad tab
1 comment total.
0 reply
Unicorn Death 653 Aug 15, 2009 09:17 AM

I have to correct the chorus.

G|------------------------------------|
D|------------------------------------|
A|---7--7-7--7--5--5-5----------------|
E|----------------------5--5--5-5--5--|

G|---------------------------------------|
D|---------------------------------5-----|
A|---5--5-5-5------------------5h7-------|
E|-------------3--3-3--0---5h7-----------|

G|------------------------------------|
D|------------------------------------|
A|---7--7-7--7--5--5-5----------------|
E|----------------------5--5--5-5--5--|

G|---------------------------------------|
D|---------------------------------------|
A|---5--5-5-5----------------------------|
E|-------------3--3-3--0----15/0---------|


Sorry about that; stupid mistake.

guest
You may want to rate the tab now too:
select rating
Wanna post a correction for this tab? Suggest correction