Oops, an error
Loading. Please wait.

The Oath tab

version 2
version 2

Whole song

Interactive

5,596 views 3 this week
4 commentsread comments
1 2 3 4 5
x 7
add to favorites
×
Save as Personal and add changes to this tab that will be seen only by you. Learn more ›
×
You can save this tab as Personal to edit and correct it or add notes. All changes will be seen only by you. Learn more »
launch autoscroll
font size
0
reset
how to read this tab
guitar tuner
edit
Autoscroll
slow
fast
+/-
esc
set tempo
stop
Author
                     The Oath – Street Sweeper Social Club
-------------------------------------------------------------------------------
Tabbed by: Graham
Email: g.irvine@rogers.com

Tuning: Standard

Intro
e|--------------------------------5----------------------3-----0-------------|
B|--9-9--10p9-----------7-7--------5-----7-7--8p7---------3-----0------------|
G|--9--9-----9----------7--7----6---6----7--7----7-----4------1--1-----------|
D|--9---------9---------7-------7--------7--------7----5------2--------------|
A|--7-------------------5-------7--------5-------------5------2--------------|
E|------------------------------5----------------------3------0--------------|

e|--------------------------------5----------------------3-----0-------------|
B|--9-9--10p9-----------7-7--------5-----7-7--8p7---------3-----0------------|
G|--9--9-----9----------7--7----6---6----7--7----7-----4------1--1-----------|
D|--9---------9---------7-------7--------7--------7----5------2--------------|
A|--7-------------------5-------7--------5-------------5------2--------------|
E|------------------------------5----------------------3------0--------------|

                                                    Hold open E distortion on
e|--------------------------------5----------------------3-------------------|
B|--9-9--10p9-----------7-7--------5-----7-7--8p7---------3------------------|
G|--9--9-----9----------7--7----6---6----7--7----7-----4------1--------------|
D|--9---------9---------7-------7--------7--------7----5------2--------------|
A|--7-------------------5-------7--------5-------------5------2--------------|
E|------------------------------5----------------------3------0--------------|

Verse (Repeat 4 times)
e|---------------------------------------------------------------------------|
B|---------------------------------------------------------------------------|
G|---------------------------------------------------------------------------|
D|-----------------------5-----------------------5----------------------5----|
A|--7--5--7--5--7--5--7------7--5--7--5--7--5--7----7--5--7--5--7--5--7------|
E|--0------------------------0----------------------0------------------------|

e|-----------------------------------------------------------------------------|
B|-----------------------------------------------------------------------------|
G|-----------------------------------------------------------------------------|
D|-----------------------------------------------------------------------------|
A|-7--5--7--5--------5--7-------5----------------------------------------------|
E|-0-----------5-h-7-------5--7---0--------------------------------------------|

Chorus
e|-----------------------------------------------------------------------------|
B|--9--9-9-9--X-X--X-X-X-X-X---7---7-7---------------7--7-7-7--X-X--X-X--X-X---|
G|--9--9-9-9--X-X--X-X-X-X-X---7---7-7--6---6-6-6-6--7--7-7-7--X-X--X-X--X-X---|
D|--9--9-9-9--X-X--X-X-X-X-X---7---7-7--7---7-7-7-7--7--7-7-7--X-X--X-X--X-X---|
A|--7--7-7-7--X-X--X-X-X-X-X---5---5-5--7---7-7-7-7--5--5-5-5--X-X--X-X--X-X---|
E|------------X-X--X-X-X-X-X------------5---5-5-5-5------------X-X--X-X--X-X---|

e|-----------0---------------------------------------------------------------|
B|------------0--------------------------------------------------------------|
G|-6--6-6--1---1-------------------------------------------------------------|
D|-5--5-5--2-----------------------------------------------------------------|
A|-5--5-5--2-----------------------------------------------------------------|
E|-3--3-3--0-----------------------------------------------------------------|

e|-----------------------------------------------------------------------------|
B|--9--9-9-9--X-X--X-X-X-X-X---7---7-7---------------7--7-7-7--X-X--X-X--X-X---|
G|--9--9-9-9--X-X--X-X-X-X-X---7---7-7--6---6-6-6-6--7--7-7-7--X-X--X-X--X-X---|
D|--9--9-9-9--X-X--X-X-X-X-X---7---7-7--7---7-7-7-7--7--7-7-7--X-X--X-X--X-X---|
A|--7--7-7-7--X-X--X-X-X-X-X---5---5-5--7---7-7-7-7--5--5-5-5--X-X--X-X--X-X---|
E|------------X-X--X-X-X-X-X------------5---5-5-5-5------------X-X--X-X--X-X---|

e|---------------------------------------------------------------------------|
B|---------------------------------------------------------------------------|
G|-6--6-6--1-----------------------------------------------------------------|
D|-5--5-5--2-----------------------------------------------------------------|
A|-5--5-5--2-----------------------------------------------------------------|
E|-3--3-3--0-----------------------------------------------------------------|

Verse (repeat twice)
e|---------------------------------------------------------------------------|
B|---------------------------------------------------------------------------|
G|---------------------------------------------------------------------------|
D|-----------------------5-----------------------5----------------------5----|
A|--7--5--7--5--7--5--7------7--5--7--5--7--5--7----7--5--7--5--7--5--7------|
E|--0------------------------0----------------------0------------------------|

e|-----------------------------------------------------------------------------|
B|-----------------------------------------------------------------------------|
G|-----------------------------------------------------------------------------|
D|-----------------------------------------------------------------------------|
A|-7--5--7--5--------5--7-------5----------------------------------------------|
E|-0-----------5-h-7-------5--7---0--------------------------------------------|

Chorus
e|-----------------------------------------------------------------------------|
B|--9--9-9-9--X-X--X-X-X-X-X---7---7-7---------------7--7-7-7--X-X--X-X--X-X---|
G|--9--9-9-9--X-X--X-X-X-X-X---7---7-7--6---6-6-6-6--7--7-7-7--X-X--X-X--X-X---|
D|--9--9-9-9--X-X--X-X-X-X-X---7---7-7--7---7-7-7-7--7--7-7-7--X-X--X-X--X-X---|
A|--7--7-7-7--X-X--X-X-X-X-X---5---5-5--7---7-7-7-7--5--5-5-5--X-X--X-X--X-X---|
E|------------X-X--X-X-X-X-X------------5---5-5-5-5------------X-X--X-X--X-X---|

e|-----------0---------------------------------------------------------------|
B|------------0--------------------------------------------------------------|
G|-6--6-6--1---1-------------------------------------------------------------|
D|-5--5-5--2-----------------------------------------------------------------|
A|-5--5-5--2-----------------------------------------------------------------|
E|-3--3-3--0-----------------------------------------------------------------|

e|-----------------------------------------------------------------------------|
B|--9--9-9-9--X-X--X-X-X-X-X---7---7-7---------------7--7-7-7--X-X--X-X--X-X---|
G|--9--9-9-9--X-X--X-X-X-X-X---7---7-7--6---6-6-6-6--7--7-7-7--X-X--X-X--X-X---|
D|--9--9-9-9--X-X--X-X-X-X-X---7---7-7--7---7-7-7-7--7--7-7-7--X-X--X-X--X-X---|
A|--7--7-7-7--X-X--X-X-X-X-X---5---5-5--7---7-7-7-7--5--5-5-5--X-X--X-X--X-X---|
E|------------X-X--X-X-X-X-X------------5---5-5-5-5------------X-X--X-X--X-X---|

e|---------------------------------------------------------------------------|
B|---------------------------------------------------------------------------|
G|-6--6-6--1-----------------------------------------------------------------|
D|-5--5-5--2-----------------------------------------------------------------|
A|-5--5-5--2-----------------------------------------------------------------|
E|-3--3-3--0-----------------------------------------------------------------|

Verse (repeat twice)
e|---------------------------------------------------------------------------|
B|---------------------------------------------------------------------------|
G|---------------------------------------------------------------------------|
D|-----------------------5-----------------------5----------------------5----|
A|--7--5--7--5--7--5--7------7--5--7--5--7--5--7----7--5--7--5--7--5--7------|
E|--0------------------------0----------------------0------------------------|

e|-----------------------------------------------------------------------------|
B|-----------------------------------------------------------------------------|
G|-----------------------------------------------------------------------------|
D|-----------------------------------------------------------------------------|
A|-7--5--7--5--------5--7-------5----------------------------------------------|
E|-0-----------5-h-7-------5--7---0--------------------------------------------|

Verse 2(same as intro)
e|--------------------------------5----------------------3-----0-------------|
B|--9-9--10p9-----------7-7--------5-----7-7--8p7---------3-----0------------|
G|--9--9-----9----------7--7----6---6----7--7----7-----4------1--1-----------|
D|--9---------9---------7-------7--------7--------7----5------2--------------|
A|--7-------------------5-------7--------5-------------5------2--------------|
E|------------------------------5----------------------3------0--------------|

e|--------------------------------5----------------------3-------------------|
B|--9-9--10p9-----------7-7--------5-----7-7--8p7---------3------------------|
G|--9--9-----9----------7--7----6---6----7--7----7-----4------1--------------|
D|--9---------9---------7-------7--------7--------7----5------2--------------|
A|--7-------------------5-------7--------5-------------5------2--------------|
E|------------------------------5----------------------3------0--------------|

Chorus(until end of song 6x)
e|-----------------------------------------------------------------------------|
B|--9--9-9-9--X-X--X-X-X-X-X---7---7-7---------------7--7-7-7--X-X--X-X--X-X---|
G|--9--9-9-9--X-X--X-X-X-X-X---7---7-7--6---6-6-6-6--7--7-7-7--X-X--X-X--X-X---|
D|--9--9-9-9--X-X--X-X-X-X-X---7---7-7--7---7-7-7-7--7--7-7-7--X-X--X-X--X-X---|
A|--7--7-7-7--X-X--X-X-X-X-X---5---5-5--7---7-7-7-7--5--5-5-5--X-X--X-X--X-X---|
E|------------X-X--X-X-X-X-X------------5---5-5-5-5------------X-X--X-X--X-X---|

e|-----------0---------------------------------------------------------------|
B|------------0--------------------------------------------------------------|
G|-6--6-6--1---1-------------------------------------------------------------|
D|-5--5-5--2-----------------------------------------------------------------|
A|-5--5-5--2-----------------------------------------------------------------|
E|-3--3-3--0-----------------------------------------------------------------|


| /  slide up
| \  slide down
| h  hammer-on
| p  pull-off
| ~  vibrato
| +  harmonic
| x  Mute note
===============================================================================

            
            
Suggest correction
Creating personal tab
Creating personal tab
You can edit any tab online and save it as your Personal.

You can edit, replace or remove any tab part or add personal notes – all changes will be seen only by you.

Personal tabs can be accessed anytime from any device, even offline.
Learn more »
comments
print report bad tab
4 comments total. Showing first comments.
0 reply
Asweepai 81 Jun 25, 2009 11:29 AM

great tab :D

+2 reply
rhysm 20 Jun 25, 2009 04:46 PM

yea nice tab but you have put a G diminished in the chours where it should be a G major.

0 reply
Maharg 30 Jun 28, 2009 04:00 PM

Yes you're correct, that was a typo, is there anyway to fix it?

guest
You may want to rate the tab now too:
select rating
Wanna post a correction for this tab? Suggest correction