Oops, an error
Loading. Please wait.

The Squeeze bass

485 views 1 this week
2 commentsread comments
1 2 3 4 5
2 more votes to show rating
add to favorites
×
Save as Personal and add changes to this tab that will be seen only by you. Learn more ›
×
You can save this tab as Personal to edit and correct it or add notes. All changes will be seen only by you. Learn more »
launch autoscroll
font size
0
reset
guitar tuner
edit
Autoscroll
slow
fast
+/-
esc
set tempo
stop
THE SQUEEZE - Street Sweeper Social Club

TABBER: Unicorn Death
EMAIL: Albinojellyfish1@Gmail.com

G|-----------------------|
D|-----------------------|
A|---5-5-5-5-5-5-5-5-5---|
E|-----------------------|

Just play that 5 a bunch of times. Then the rest of the song is basically two riffs.

WE GONNA PUT YOU IN THE SQUEEZE:
G|------------------------------------------------|
D|---5--------------------------------------------|
A|-----7-5-7-5-7-5-7-5------5---------------------|
E|---------------------7-5----7-5-7-5-7-5-7-5-0---|

VERSE:
G|------------------------------------------------|
D|------------------------------------------------|
A|---7---7-------5------7-5---7-------5-----------|
E|-----0---0-5h7---5-0------0---0-5h7-------------|

CHORUS:
G|------------------------------------------------|
D|---5--------------------------------------------|
A|-----7-5-7-5-7-5-7-5------5---------------------|
E|---------------------7-5----7-5-7-5-7-5-7-5-0---|

VERSE:
G|------------------------------------------------|
D|------------------------------------------------|
A|---7---7-------5------7-5---7-------5-----------|
E|-----0---0-5h7---5-0------0---0-5h7-------------|

CHORUS:
G|------------------------------------------------|
D|---5--------------------------------------------|
A|-----7-5-7-5-7-5-7-5------5---------------------|
E|---------------------7-5----7-5-7-5-7-5-7-5-0---|

'CAUSE THEY VOTE WITH THEIR GUNS:
G|------------------------------------------------|
D|---5----------------------5---------------------|
A|-----7-5-7-5-7-5-7-5--------7-5-7-5-7-5-7-5-----|
E|---------------------7-5--------------------7-5-|

ENDING:
G|--------------|
D|--------------|
A|--------------|
E|---0---10/0---|




================
GLOSSARY
================
h hammer-on
/ slide

            
            
Suggest correction
Creating personal tab
Creating personal tab
You can edit any tab online and save it as your Personal.

You can edit, replace or remove any tab part or add personal notes – all changes will be seen only by you.

Personal tabs can be accessed anytime from any device, even offline.
Learn more »
Give kudos to tab author, rate the tab!
1 2 3 4 5
comments
print report bad tab
2 comments total.
0 reply
sixsixone__ 93 Aug 10, 2009 03:26 PM

98% there man! I found that right after the intro and chorus he plays:

D----5-6--5
A-----------7-5-7-5-7-5

Otherwise I think it sounds perfect. Thanks a lot man!

0 reply
sixsixone__ 93 Aug 10, 2009 03:28 PM

whoops, i made a mistake on that. i meant:

D---------5--
A----5-6-----7-5-7-5-7-5, etc.

accidentally typed it out one string up. :)

guest
You may want to rate the tab now too:
select rating
Wanna post a correction for this tab? Suggest correction